Guitar Tabs, Chords and Lyrics
Update 25:10. 13:00. Site is back up running again. Songbooks are recovered. Woring on getting search back up..


Wedding in the Country Manor   Phil Keaggy

 
 E- -------- ------------- -------------- --5-----7----- --9----------
 B- -------- ------------- -------------- --6-----9----- --9----------
 G- -------- ------------- --6-----9----- -------------- -------------
 D- -------- --7-----9---- --7-----9----- -------------- -------------
 A- --4--7-- --7-----9---- -------------- -------------- -------------
 E- --5--7-- ------------- -------------- -------------- ------------- 

 


 2 . 1 . 2 . 1 . 2 . 1 . 2 . 1 . 2 .


 


 

 
 E- --7--9--7--9- --5-----4--5-- --2-----0----- -------------
 B- --9---------- --6----------- -------------- --------0--2-
 G- ------------- -------------- -------------- -------------
 D- ------------- -------------- --4-----2----- -------------
 A- ------------- -------------- -------------- -------------
 E- ------------- -------------- -------------- ------------- 

 


 1 . 2 . 1 . 2 . 1 . 2 . 1 . 2 .


 


 

 
 E- ------------- -------------- -------------- --5----------
 B- ------------- -------------- -------------- --5----------
 G- --2-----1---- -------------- -------------- -------------
 D- ------------- --4-----6----- --7----------- -------------
 A- ------------- -------------- --7----------- --------4--7-
 E- --2-----0---- --2-----4----- --5----------- --------5--7- 

 


 1 . 2 . 1 . 2 . 1 . 2 . 1 . 2 .


 


 

 
 E- ------------- -------------- --5-----7----- --9----------
 B- ------------- -------------- --7-----9----- --9----------
 G- ------------- --6-----9----- -------------- -------------
 D- --7-----9---- --7-----9----- -------------- -------------
 A- --7-----9---- -------------- -------------- -------------
 E- ------------- -------------- -------------- ------------- 

 


 1 . 2 . 1 . 2 . 1 . 2 . 1 . 2 .


 


 

 
 E- --10--------- -------------- -------------- -------------
 B- --10-14-12--- --14-12-10---- --12-10----10- -------------
 G- --11--------- -------------- --------13---- --11---------
 D- --0---------- -------------- -------------- --0----------
 A- ------------- --0----------- -------------- -------------
 E- ------------- -------------- --0----------- ------------- 

 


 1 . 2 . 1 . 2 . 1 . 2 . 1 . 2 .


 


 

 
 E- --2-p0-----0- --0-----0----- --0-----0----- -------------
 B- --------3---- -----0-----0-- -----0-----0-- -------------
 G- ------------- -------------- -------------- -------------
 D- --0---------- -------------- -------------- --4-----6----
 A- ------------- --4-----2----- --0----------- -------------
 E- ------------- -------------- --------4----- --2-----4---- 

 


 1 . 2 . 1 . 2 . 1 . 2 . 1 . 2 .


 


 

 
 E- ------------- --0-----0----- --0-----0----- -------------
 B- ------------- -----0-----0-- -----0-----0-- -------------
 G- ------------- -------------- -------------- -------------
 D- --7---------- -------------- -------------- --4-----6----
 A- ------------- --4-----2----- --0----------- -------------
 E- --5---------- -------------- --------4----- --2-----4---- 

 


 1 . 2 . 1 . 2 . 1 . 2 . 1 . 2 .


 


 

 
 E- --5----------
 B- --2----------
 G- --2----------
 D- --2----------
 A- --0----------
 E- ------------- 

 


 1 . 2 .


 


 Movement 2


 


 

 
 E- -------------------------- --------------------------
 B- --2--------0--2--0-------- -----------2--3--2--------
 D- -----2-----------------2-- -----4--------------------
 A- --0----------------------- --2-----------------------
 E- -------------------------- -------------------------- 

 


 1 . 2 . 3 . 4 . 1 . 2 . 3 . 4 .


 


 


 

 
 E- -----2-------------------- --------------------------
 B- --------5--3--2----------- --2-----------------------
 G- -----------------4--2--4-- --------------1h2p1----1--
 D- --4----------------------- --------4-----------4-----
 A- --4----------------------- --------------------------
 E- --2----------------------- -------------------------- 

 


 1 . 2 . 3 . 4 . 1 . 2 . 3 . 4 .


 


 

 
 E- -------------------------- --------------------------
 B- -----------0--2--0-------- -----------2--3--2--------
 G- --2-----2-----------2----- --------4-----------4--2--
 D- -----2-----------------2-- -----4--------------------
 A- --0----------------------- --2-----------------------
 E- -------------------------- -------------------------- 

 


 1 . 2 . 3 . 4 . 1 . 2 . 3 . 4 .


 


 

 
 E- -----2-------------------- --------------------------
 B- --------5--3--2----------- --2-----------------------
 G- -----------------4--2--4-- --------4-----4-----------
 D- --4----------------------- --------------------------
 A- --4----------------------- --------------------------
 E- --2----------------------- -------------------------- 

 


 1 . 2 . 3 . 4 . 1 . 2 . 3 . 4 .


 


 ???


 


 

 
 E- --7-----7--7-----7-- --7-----7--7-----7--
 B- -----5--------5----- -----5--------5-----
 G- -------------------- --------------------
 D- -------------------- --------------------
 A- --7--------7-------- --7--------7--------
 E- -------------------- -------------------- 

 


 [1] [2] [3] [4] [5] [6] [1] [2] [3] [4] [5] [6] 


 


 

 
 E- --7-----7--7-----7-- --7-----7--7-----7--
 B- -----5--------5----- -----5--------5-----
 G- -------------------- --------------------
 D- -------------------- --------------------
 A- --7--------7-------- --7--------7--------
 E- -------------------- -------------------- 

 


 [1] [2] [3] [4] [5] [6] [1] [2] [3] [4] [5] [6] 


 


 

 
 E- --7-----7--7-----7-- --7-----5--4-----2--
 B- -----5--------5----- -----5--------2-----
 G- -------------------- -----------2--------
 D- -------------------- --7-----------------
 A- --7--------7-------- --------------------
 E- -------------------- -------------------- 

 


 [1] [2] [3] [4] [5] [6] [1] [2] [3] [4] [5] [6] 


 


 

 
 E- --0----------------- --------------------
 B- --------4--2-----0-- --3-----2--0--------
 G- -------------------- -----------------2--
 D- -------------------- --------------------
 A- --2--------0-------- --------------------
 E- -------------------- --3--------2-------- 

 


 [1] [2] [3] [4] [5] [6] [1] [2] [3] [4] [5] [6] 


 


 

 
 E- -------------------- --------------------
 B- --0----------------- --------------------
 G- -------------------- --------------------
 D- -----------2-----2-- -----2-----2--------
 A- --------2--2--2--2-- --2--2--2--2--------
 E- --0----------------- -------------------- 

 


 [1] [2] [3] [4] [5] [6] [1] [2] [3] [4] [5] [6] 


 


 When repeating the first time, use the following for the last 2 measures:


 


 

 
 E- -------------------- -------------
 B- --0----------------- -----------------
 G- -------------------- --------------------
 D- -----------2-----2-- --------------------
 A- --------2--2--2--2-- --------------------
 E- --0----------------- -------------------- 

 


 [1] [2] [3] [4] [5] [6] [1] [2] [3] [4] [5] [6] 


 


 Last Movement


 


 


 Section I


 


 

 
 E- -------------------- --------------------
 B- -------------------- --------------------
 G- --------------6--9-- --8--6----------9---
 D- -----6--9--7-------- --------9--6--9-----
 A- --7----------------- --------------------
 E- -------------------- -------------------- 

 


 [1] [2] [3] [4] [5] [6] [1] [2] [3] [4] [5] [6] 


 


 

 
 E- -----------7-------- --------------------
 B- --7--9--10----9----- --7-----------------
 G- -----------------9-- -----8--------------
 D- -------------------- --------9--7--------
 A- -------------------- --------------9--6--
 E- -------------------- -------------------- 

 


 [1] [2] [3] [4] [5] [6] [1] [2] [3] [4] [5] [6] 


 


 

 
 E- -----------
 B- -----------
 G- -----------
 D- -----------
 A- --------6--
 E- --7--9----- 

 


 [1] [2] [3]  


 

 
 E- -------------------- --------------------
 B- -------------------- --------------------
 G- --------------6--9-- --8--6-----9-----9--
 D- --9--6--9--7-------- --------9--6--9-----
 A- --7--------7-------- --9-----------------
 E- -------------------- -------------------- 

 


 [1] [2] [3] [4] [5] [6] [1] [2] [3] [4] [5] [6] 


 


 

 
 E- -----------7-------- -----------7--------
 B- --7--9--10----9----- --7-----------9-----
 G- -----------------9-- -----8-----------9--
 D- --7--------9-------- --7-----9--9--------
 A- -------------------- --------------------
 E- -------------------- -------------------- 

 


 [1] [2] [3] [4] [5] [6] [1] [2] [3] [4] [5] [6] 


 


 

 
 E- -----------7-------- --------------------
 B- --7-----------9----- --7-----------------
 G- -----8-----------9-- -----8--------------
 D- --7-----9--9-------- --7-----9-----------
 A- -------------------- --------------------
 E- -------------------- -------------------- 

 


 [1] [2] [3] [4] [5] [6] [1] [2] [3] [4] [5] [6] 


 


 PART 2.


 


 Repeat PART 1 without palm muting.


 


 Play fast, clean, and don't forget to tap the guitar


 rhythmically at the same time (please, someone, tell me


 that this is overdubbed...).


 


 

 
 E- -----------7-------- --------------------
 B- --7-----------9----- --7-----------------
 G- -----8-----------9-- -----8--------------
 D- --------9----------- --------9--7--------
 A- -------------------- --------------9--6--
 E- -------------------- -------------------- 

 


 [1] [2] [3] [4] [5] [6] [1] [2] [3] [4] [5] [6] 


 


 

 
 E- -----------
 B- -----------
 G- -----------
 D- -----------
 A- -----------
 E- --7-------- 


Important: The song above is NOT stored on the Chordie server. The original song is hosted at www.christianguitar.org. Chordie works as a search engine and provides on-the-fly formatting. Chordie does not index songs against artists'/composers' will. To remove this song please click here.

This song is displayed as text-only. Transposing and tuning is only available for chordpro-songs.
Rate #2 of 2 versions

Login - add to songbook

SHARE PAGE  




You need to log in to post comments