Guitar Tabs, Chords and Lyrics
Update 25:10. 13:00. Site is back up running again. Songbooks are recovered. Woring on getting search back up..


Winds of Change  Kutless

Date tabbed: 11/19/06 -12/1/06
Band: Kutless
Album: Hearts Of The Innocent
Song: Winds Of Change
This is 2 steps down from standard tuning. The bridge contains chords that you
can play in any other tuning, but to match what Kutless is playing, it needs
to be 2 steps down. Enjoy!
Intro:
 
 C------------------------3-3----3-3----3----------------------------------------
 F-3-3----3-3------3------------------------------5-5----5-5---5-----5-5----5-5--
 B-----5-------5-----5----------5-------5---5---------7-------7---7-------7------

[E]  
[G]  
[C]  
[C]  
[F]  
 
 B--9-7-5----

Verse:
Intro 3xs
Pre-Chorus:
 
 C---------------------3-3---3-3---3---------------------------------------------
 F-3-3---3-3---3--------------------------8-8---8-8----8-----8-8-----8-8------8--
 B------5-----5---5-------5-----5---5---------7-----7----7--------7--------7-----

[E]  
[G]  
[C]  
[C-]  
[F-]  
[B-]  
[E-7]  
[G-]  
[C-]  
Chorus:
 
 C-5-5-5-------------5------------------------------------------------------3----
 F-7-7-7-------------7--------------3-3-3---------------3------------------5-----
 B-7-7-7-------------7--------------5-5-5---------------5------------------5-----
 E-5-5-5-4-4-4-45--4-4--------5-5-5----4-4-4-4----5-----4-4---------3--------7--
 G-5-5-5-------------5------------------------------------------------------3----
 C-5-5-5-------------5------------------------------------------------------3----

[C----]  
[F---5-]  
[B---7--]  
[E----]  
[G----]  
[C----]  
2xs = 1 chorus
Intro
Verse
Pre-chorus
Chorus 2xs
Use the correction thingy below.

Important: The song above is NOT stored on the Chordie server. The original song is hosted at www.christianguitar.org. Chordie works as a search engine and provides on-the-fly formatting. Chordie does not index songs against artists'/composers' will. To remove this song please click here.

Text color:
Chord color:
Chord grids: 
Font size:    
Page size: 

C E E-7 F G
Rate #1 of 6 versions

Login - add to songbook

SHARE PAGE  



You need to log in to post comments