Guitar Tabs, Chords and Lyrics
Server problems seems to be fixed. Chordie has been experiencing problems with songs disappearing. These issues now seems to be fixed, but still verifying the fix. If you find anything strange, please email admin@chordie.com.


Again   Kutless

 
 D[-----2-----2-----2-----2-----2-----2-----0-----0-]
 A[---0-----0---3-------3-----1-----1---1-------0---]
 D[-0-----0-------0---0-----0-----0-------0---0-----]

 


 Then


 Gtr. 1


 

 
 D[-----2-----2-----2-----2-----2-----2-----0-----0-]
 A[---0-----0---3-------3-----1-----1---1-------0---]
 D[-0-----0-------0---0-----0-----0-------0---0-----]

 


 Gtr. 2


 G[-3-2b3p2-]


 


 Verse 1


 Gtr. 1


 

 
 D[-----2-----2-----2-----2-----2-----2-----0-----0-]
 A[---0-----0---3-------3-----1-----1---1-------0---]3x
 D[-0-----0-------0---0-----0-----0-------0---0-----]

 


 Gtr. 2


 G[-3-2b3p2-]3x


 


 Chorus


 

 
 D[-7-7-7-9---2-2-2-4---5-5-5-7---0-0-3-3-0-0-3-3-3-5-]
 A[-7-7-7-7---2-2-2-2---5-5-5-5---0-0-3-3-0-0-3-3-3-5-]2x
 D[-7-7-7-7---2-2-2-2---5-5-5-5---0-0-3-3-0-0-3-3-3-5-]

 


 . . . . . . . . . .


 Post-Chorus


 Gtr. 1


 

 
 D[-----2-----2-----2-----2-----2-----2-----0-----0-]
 A[---0-----0---3-------3-----1-----1---1-------0---]2x
 D[-0-----0-------0---0-----0-----0-------0---0-----]

 


 Gtr. 2


 G[-3-2b3p2-]2x


 


 Verse 2


 (Same as Verse 1)


 


 Chorus


 


 Bridge


 Gtr. 1


 

 
 D[-7-7----7-7-]
 A[-7-7----7-7-]
 D[-7-7----7-7-]

 


 Gtr. 2


 

 
 A[-7-5-7-5-7-8-7-5-7-5-7-5-7-8-7-5-7-5-7-5-7-8-7-5-3-3-3-3-3-5-5-5-]

 


 . . . . . . . . . . . . . . . . . . . . . . . . . . . . . . . .


 Then


 

 
 D[-7-8-7-5-7-5-7-0-7-8-7-5-7-5-7-0-7-8-7-5-7-5-7-0-3-3-3-3-3-5-5-5-]
 A[-7-8-7-5-7-5-7-0-7-8-7-5-7-5-7-0-7-8-7-5-7-5-7-0-3-3-3-3-3-5-5-5-]2x
 D[-7-8-7-5-7-5-7-0-7-8-7-5-7-5-7-0-7-8-7-5-7-5-7-0-3-3-3-3-3-5-5-5-]

 


 . . . . . . . . . . . . . . . . . . . . . . . . . . . . . . . .


 


 Then


 

 
 D[-7-8-7-5-7-5-7-0-7-8-7-5-7-5-7-0-7-8-7-5-7-5-7-0-3-3-3-3-3-5-5-5-]
 A[-7-8-7-5-7-5-7-0-7-8-7-5-7-5-7-0-7-8-7-5-7-5-7-0-3-3-3-3-3-5-5-5-]2x
 D[-7-8-7-5-7-5-7-0-7-8-7-5-7-5-7-0-7-8-7-5-7-5-7-0-3-3-3-3-3-5-5-5-]

 


 


 Chorus


 


 Ending


 

 
 D[-7-8-7-5-7-5-7-0-7-8-7-5-7-5-7-0-7-8-7-5-7-5-7-0-3-3-3-3-3-5-5-5-]
 A[-7-8-7-5-7-5-7-0-7-8-7-5-7-5-7-0-7-8-7-5-7-5-7-0-3-3-3-3-3-5-5-5-]
 D[-7-8-7-5-7-5-7-0-7-8-7-5-7-5-7-0-7-8-7-5-7-5-7-0-3-3-3-3-3-5-5-5-]


Important: The song above is NOT stored on the Chordie server. The original song is hosted at www.christianguitar.org. Chordie works as a search engine and provides on-the-fly formatting. Chordie does not index songs against artists'/composers' will. To remove this song please click here.

This song is displayed as text-only. Transposing and tuning is only available for chordpro-songs.
Rate #1 of 1 versions

Jango Player

Login - add to songbook

SHARE PAGE  



You need to log in to post comments