Guitar Tabs, Chords and Lyrics
Major upgrade!! After one year development the new version of Chordie is now online! Please give feedback.


Let You In   Kutless

 
 G#[-12-12--7-7--8-8--8-8--8-8-8-8-]2x

 


 Then.. .. . . . . . . . . . .


 Gtr. 1


 

 
 G#[-12-12--7-7--8-8--8-8--8-8-8-8-]3x

 


 Then.. .. . . . . . . . . . .


 

 
 G#[-12-12--7-7--8-8--8-8--8-10-10-10-]

 


 .. .. . . . . . . . .. .. ..


 Gtr. 2


 

 
 C#[-0-0--7-7--8-8--8-8--8-8-8-8-]
 G#[-0-0--7-7--8-8--8-8--8-8-8-8-]3x
 C#[-0-0--7-7--8-8--8-8--8-8-8-8-]

 


 Then. . . . . . . . . . . .


 

 
 C#[-0-0--7-7--3-3--3-3--3-5-5-5-]
 G#[-0-0--7-7--3-3--3-3--3-5-5-5-]
 C#[-0-0--7-7--3-3--3-3--3-5-5-5-]

 


 . . . . . . . . . . . .


 Verse 1


 Gtr. 1


 

 
 G#[-12-12--7-7--8-8--8-8--8-8-8-8-]3x

 


 Then.. .. . . . . . . . . . .


 

 
 F#[----------------------10-12-12-12-]
 C#[-----------------------x--x--x--x-]
 G#[-12-12--7-7--8-8--8-8--8-10-10-10-]

 


 .. .. . . . . . .


 Gtr. 2


 

 
 C#[-0-0--7-7--8-8--8-8--8-8-8-8-]
 G#[-0-0--7-7--8-8--8-8--8-8-8-8-]3x
 C#[-0-0--7-7--8-8--8-8--8-8-8-8-]

 


 Then. . . . . . . . . . . .


 

 
 C#[-0-0--7-7--3-3--3-3--3-5-5-5-]
 G#[-0-0--7-7--3-3--3-3--3-5-5-5-]
 C#[-0-0--7-7--3-3--3-3--3-5-5-5-]

 


 . . . . . . . .


 Pre-Chorus


 Gtr. 1


 

 
 F#[-14-9-10----14-9-10----14-9-10----14-9-10---12-]
 C#[--x-x--x-----x-x--x-----x-x--x-----x-x--x----x-]
 G#[-12-7--8----12-7--8----12-7--8----12-7--8---10-]

 


 Gtr. 2


 

 
 C#[-0-7-8----0-7-8----0-7-8----0-7-3---5-]
 G#[-0-7-8----0-7-8----0-7-8----0-7-8---5-]
 C#[-0-7-8----0-7-8----0-7-8----0-7-8---5-]

 


 


 Chorus


 Gtr. 2


 

 
 C#[-0--8--0--8--0--8--5----3-]
 G#[-0--8--0--8--0--8--5----3-]2x
 C#[-0--8--0--8--0--8--5----3-]

 


 Gtr. 1


 

 
 A#[-3----1--3----1-0-0-0-0-3----1---------]
 F#[---2-------2--------------2------------]
 C#[--------------------------------5----3-]2x
 G#[--------------------------------5----3-]
 C#[--------------------------------5----3-]

 


 


 Post-Chorus


 Gtr. 1


 

 
 G#[-12-12--7-7--8-8--8-8--8-8-8-8-]3x

 


 Then.. .. . . . . . . . . . .


 

 
 G#[-12-12--7-7--8-8--8-8--8-10-10-10-]

 


 .. .. . . . . . . . .. .. ..


 Gtr. 2


 

 
 C#[-0-0--7-7--8-8--8-8--8-8-8-8-]
 G#[-0-0--7-7--8-8--8-8--8-8-8-8-]3x
 C#[-0-0--7-7--8-8--8-8--8-8-8-8-]

 


 . . . . . . . . . . . .


 Verse 2


 (Same as Verse 1)


 


 Pre-Chorus


 


 Chorus


 


 Bridge


 

 
 C#[-0-0--0-0--0-0-0-3--0-0---]
 G#[-0-0--0-0--0-0-0-3--0-0-3-]4x
 C#[-0-0--0-0--0-0-0-3--0-0---]

 


 Then. . . . . . . . .


 

 
 C#[-0-0--0-0--3p2--0-3--2-]
 G#[-0-0--0-0--3p2--0-3--2-]4x
 C#[-0-0--0-0--3p2--0-3--2-]

 


 


 Chorus


 


 Ending


 

 
 C#[-0-0--0-0--3p2--0-3--2-]
 G#[-0-0--0-0--3p2--0-3--2-]3x
 C#[-0-0--0-0--3p2--0-3--2-]

 


 Then


 

 
 C#[-0-0--0-0--0-0-]
 G#[-0-0--0-0--0-0-]
 C#[-0-0--0-0--0-0-]


Important: The song above is NOT stored on the Chordie server. The original song is hosted at www.christianguitar.org. Chordie works as a search engine and provides on-the-fly formatting. Chordie does not index songs against artists'/composers' will. To remove this song please click here.

This song is displayed as text-only. Transposing and tuning is only available for chordpro-songs.
Rate #1 of 2 versions

Jango Player

Login - add to songbook

SHARE PAGE  



You need to log in to post comments