Guitar Tabs, Chords and Lyrics
Server problems seems to be fixed. Chordie has been experiencing problems with songs disappearing. These issues now seems to be fixed, but still verifying the fix. If you find anything strange, please email admin@chordie.com.


All the Way My Savior Leads Me  Rich Mullins

"All The Way My Savior Leads Me"
(Philippians 1:6, 3:10-15)
words by Fanny J. Crosby
music by Robert Lowery
copyright 1992 Edward Grant, Inc. (ASCAP)
This tablature is an interpretation of the song as played on *The World As
Best As I Remember It, Vol. II* by Rich Mullins. It appears here as
transcribed by those credited below, and is only to be used for private
study, scholarship, or research. It can be reproduced, but if any changes
are made before doing so, please add a note that it is not the original
version and pass along the original as well. Permission has not yet been
sought from the owners to reproduce this song. I don't think Rich or Fanny
or Robert mind, though... :)
Transcriptors: Mike Chapman & Peter Yang
~~~~~~~~~~~~~~~~~~~~~~~~~~~~~~~~~~~~~~~~~~~~~~~~~~~~~~~~~~~~~~~~~~~~~~~~~~
Credit goes to Mike Chang for (unkowingly) providing the chords on his
website:
http://www-leland.stanford.edu/~mich/fake/rm/rmall.html
The chords are pretty simple for the most part, even the D2maj7/F# (whew!).
Other fingerings are used in the tablature, but these are listed as my
interpretation of Mike Chang's chords.
[D] [G] [F#m] [A] [A7] [D2maj7/F#] [G2] [Gmaj7/A] 
[DADGBd]====== [DADGBd]====== [DADGBd]====== [DADGBd]====== [DADGBd]====== [DADGBd]====== [DADGBd]====== [DADGBd]======
000230 520005 x42220 x02222 002022 452220 520230 x05434
[A7sus] [A2sus] [F#m7] [Em7] [Gmaj7] [G/A] [D/A] [Asus] [D2] 
[DADGBd]====== [DADGBd]====== [DADGBd]====== [DADGBd]====== [DADGBd]====== [DADGBd]====== [DADGBd]====== [DADGBd]====== [DADGBd]======
002020 002200 244252 022030 xx5434 x00005 xxxxxx 002232 xxxxxx
~~~~~~~~~~~~~~~~~~~~~~~~~~~~~~~~~~~~~~~~~~~~~~~~~~~~~~~~~~~~~~~~~~~~~~~~~~
Playing tips:
=============
Note that the tuning is a double-drop D. The song on the album is I think
played simultaneously (for the most part) by two guitars, but this is
arranged for one guitar. You won't be able to get _quite_ the same sound
as the album with only one guitar, but using a 12-string might help. (I can't
manage the harmonics very well on 12-strings). If you don't have long playing
nails, you might try using a nylon pick. On the strumming parts, I've tried
to give an impression of which strings to hit, but listen to the album to
develop your own interpretation. Pay special attention to the dynamics
(volume); it gets quite enthusiastic during some parts! For the harmonics,
you might try to use your ear to get it more exactly like the album, because
the two guitars going at once makes it pretty difficult to know exactly what
strings are being plucked. However, feel free to play whatever you like, I do!
The bars with 1234 are meter indicators. I did my best to give the rhythm of
both the guitar part and the vocals by these.
Notation key:
= harmonic () = optional note
h = hammer on p = pulloff
/ = slide up \ = slide down
 
 --1-------2-------3-------4------- --1-------2-------3-------4------- 

INTRO
 
 d ------------------------------- -------------------------------
 B ------------------------------- -------------------------------
 G ------------------------------ ------------------------------
 D ----()--------------------- ----()---------------------
 A ------------------------------ ------------------------------
 D ------------------------------ ------------------------------ 

[1]  
 
 d ------------------------------- -------------------------------
 B ------------------------------- -------------------------------
 G ------------------------------ ------------------------------
 D ----()--------------------- ----()---------------------
 A ------------------------------ ------------------------------
 D ------------------------------ ------------------------------ 

[3]  
 
 --1-------2-------3-------4------- --1-------2-------3-------4-------
 d ------------------------------- -------------------------------
 B ------------------------------- -------------------------------
 G ------------------------------ ------------------------------
 D ----()--------------------- ----()---------------------
 A ------------------------------ ------------------------------
 D ------------------------------ ------------------------------ 

[5] All of the
VERSE 1
 
 --1-------2-------3-------4------- --1-------2-------3-------4-------
 d ------------------------------- -------------------------------
 B ------------------------------- -------------------------------
 G ------------------------------ ------------------------------
 D ----()--------------------- ----()---------------------
 A ------------------------------ ------------------------------
 D ------------------------------ ------------------------------ 

[7] way my Sa -vior leads me What have
 
 d --------------------------- -------------------------------
 B ------------------------------ -------------------------------
 G ()------------------------- ------------------------------
 D ------------------------------ ----()---------------------
 A ---------------------------------- ------------------------------
 D ---------------------------------- ------------------------------ 

[9] I to ask be -side? Can I do -
 
 --1-------2-------3-------4------- --1-------2-------3-------4-------
 d ---------------------------- ----------------------------
 B ------------------------------- -------------------------------
 G ---------------------------------- ----------------------------------
 D ------------------------------- -------------------------------
 A -----()--------------------- -----()---------------------
 D ------------------------------- ------------------------------- 

[11] ubt His faithful mer - cies, who through
 
 d --------------------------- ------------------------------
 B ------------------------------ ----------------------------------
 G ()------------------------- ------------------------------
 D ------------------------------ -------------------------------
 A ---------------------------------- -------------------------------
 D ---------------------------------- ------------------------------- 

[13] life has been my guide? Heav - enly
 
 --1-------2-------3-------4------- --1-------2-------3-------4-------
 d ------------------------------- -------------------------------
 B ------------------------------- -------------------------------
 G ------------------------------ ------------------------------
 D ----()--------------------- ----()---------------------
 A ------------------------------ ------------------------------
 D ------------------------------ ------------------------------ 

[15] peace, Divinest comfort, ere by
 
 d --------------------------- -------------------------------
 B ------------------------------ -------------------------------
 G ------------------------------ ------------------------------
 D ------------------------------ ----()---------------------
 A ---------------------------------- ------------------------------
 D ---------------------------------- ------------------------------ 

[17] faith in Him to dwell For I know
 
 --1-------2-------3-------4------- --1-------2-------3-------4-------
 d ---------------------------- ---------------------------
 B ------------------------------- ------------------------------
 G ---------------------------------- ------------------------------
 D -----()--------------------- ------------------------------
 A ------------------------------- ----------------------------------
 D ---------------------------------- ---------------------------------- 

[19] what--e'er be - fall me, Je - sus
 
 d ------------------------------ --------------0-----------0-------
 B ---------------------------------- --------------3-------3-----------
 G ------------------------------ --------------2---0-----------0---
 D ------------------------------- ----------2//4--------------------
 A ------------------------------- ------0---------------------------
 D ------------------------------- --0------------------------------- 

[21] do - eth all things well.
 
 --1-------2-------3-------4------- --1-------2-------3-------4-------
 B --------------3-------3----------- --------------3-------3-----------
 D ----------2//4-------------------- ----------2//4--------------------
 A ------0--------------------------- ------0---------------------------
 D --0------------------------------- --0------------------------------- 

[23] All of the way my Sa -vior le-
VERSE 2
 
 d --------------0-----------0------- ------------------0---------------
 B --------------3-------3----------- --------------3-------------------
 G --------------2---0-----------0--- ----------------------------------
 D ----------2//4-------------------- ----------0-----------------------
 A ------0--------------------------- ------2---------------------------
 D --0------------------------------- --5------------------------------- 

[25] ads me, And cheers wi - nding I tread,
he each path
 
 --1-------2-------3-------4------- --1-------2-------3-------4-------
 d -------------0------------0------- --------------0-------------------
 B -------------3--------3--------3-- ----------------------2-----------
 G -------------2----0--------------- ----------2---------------2-------
 D ---------2//4--------------------- ------2-----------------------2---
 A ------0--------------------------- --4---------------4---------------
 D --0------------------------------- ---------------------------------- 

[27] Gives me strength for every tri-
 
 --1-------2-------3-------4------- --1-------2-------3-------4-------
 d --------------0------------------- --------------0-------0-----------
 B ----------------------2----------- --------------0-----------0-------
 G ----------2---------------2------- --------------0---------------0---
 D ------2-----------------------2--- ----------0-----------------------
 A --4---------------4--------------- ------2---------------------------
 D ---------------------------------- --5---------------5--------------- 

[29] al, and he feeds me with the living bread
 
 d -----//4\\2p0--0----------0------- -------------0------------0-------
 B -----//3\\0----2--0---2-------2--- -------------3--------3-----------
 G -----//4\\2p0--2--2---0----------- -------------2----0-----------0---
 D ------------------2---2----------- ---------2//4---------------------
 A --0------------------------------- ------0---------------------------
 D ---------------------------------- --0------------------------------- 

[31] And though my we - ary steps may falter,
 
 --1-------2-------3-------4------- --1-------2-------3-------4-------
 d --------------0------------------- ---------------0------------------
 B --------------3------------------- ---------------0------0-----------
 G --------------2------------------- ---------------0----------0-------
 D ----------2//4-------------------- ----------0-------------------0---
 A ------0--------------------------- ------2---------------------------
 D --0------------------------------- --5---------------5--------------- 

[33] And my soul a - thirst may be,
 
 --1-------2-------3-------4------- --1-------2-------3-------4-------
 d --------------0------------------- --------------0-------------------
 B --------------3------------------- ----------------------2-----------
 G --------------2------------------- ----------2---------------2-------
 D ----------2//4-------------------- ------2-----------------------2---
 A ------0--------------------------- --4---------------4---------------
 D --0------------------------------- ---------------------------------- 

[35] Gushing from the rock before me,
 
 --1-------2-------3-------4------- --1-------2-------3-------4-------
 d ---------------------------------- ----------------------------------
 B --------------0------------------- ----//7\\\5---3--/7---7\5\2--p0---
 G --------------0------------------- ----------------------------------
 D ----------0--(0)------------------ ----//7\\\5---4--/7---7\5\2--p0---
 A ------2--------------------------- --0-------------------------------
 D --5------------------------------- ---------------------------------- 

[37] Lo, a spring of joy I
 
 --1-------2-------3-------4------- --1-------2-------3-------4------- 

grandly
 
 d ----------0-----------0---0---0--- --------------0-------0---0---0---
 B --3-------3-----------3---3---3--- --------------0-------0---0---0---
 G --2-------2-----------2---2---2--- --0-----------0-------0---0---0---
 D ----------0-----------0---0---0--- --0-------0---0-------0---0---0---
 A ----------0-------0--------------- --2-------2-----------2---2---2---
 D ----------0-------0--------------- --5-------5----------------------- 

[39] see! And all the way my Saviour leads
 
 --1-------2-------3-------4------- --1-------2-------3-------4------- 

VERSE 3 slap
 
 d --------------0------------------- --0---------------x---0---0---0---
 B --------------0-----------0---0--- --0-------0---0---x---0---0---0---
 G --0---0---0---0---0-------0---0--- --2-------2---2---x---2---2---2---
 D --0---0---0---0---0-------0---0--- --2-------2---2---x---2---2---2---
 A --2---2---2-------2-------2---2--- --0-------0---0---x---------------
 D --5---5---5-------5--------------- --0------------------------------- 

[41] me, Oh the full - ness of His
 
 d ------2---2---0---0--------------- --------------0-------0---0---0---
 B ------5---5---3---3------(3)-(3)-- --------------3-------3---3---3---
 G ------2---2---0---0------(0)-(0)-- --------------2-------2---2---2---
 D ------4---4---2---2------(2)-(2)-- ----------2//4--------4---4---4---
 A ------4---4---2---2------(2)-(2)-- ------0---------------------------
 D ------2---2---0---0--------------- --0------------------------------- 

[43] love, Perfect rest to me is pro-
 
 --1-------2-------3-------4------- --1-------2-------3-------4------- 

slap
 
 d --0-------0---0-------0---0---0--- --0-------0---0---x---2---2---2---
 B --0-------3---3-------3---3---3--- --0-------0---0---x---2---2---2---
 G --0-------4---4-------4---4---4--- --0-------0---0---x---2---2---2---
 D --0-------5---5-------5---5---5--- --0-------0---0---x---0---0---0---
 A --0--------------(0)-------------- --x-------x---x---x---0---0---0---
 D --0--------------(0)-------------- --5-------5---5------------------- 

[45] mised in my Fat - her's House a-
hit bass&slap
(slide up)
 
 d --0---0--(7)-----(x)-(7)-(7)-(7)-- --------------0---x---0---0---0---
 B --3---5---7------(x)--7---7---7--- --------------0---x---3---3---3---
 G --2---4---7------(x)--7---7---7--- --0-----------0---x---0---0---0---
 D --0---0---7------(x)--7---7---7--- --0-------0---0---x---0---0---0---
 A --0---0---0------(x)--0---0---0--- --2-------2-------2---2---2---2---
 D ----------0----------------------- --5-------5-------5---5---5---5--- 

[47] bove When my spirit, clothed im-
 
 --1-------2-------3-------4------- --1-------2-------3-------4------- 

let top notes ring out slap
 
 d --------------0---0-------0---0--- --0-------0---0---x---0---0---0---
 B --------------3---3-------3---3--- --3-------3---3---x---3---3---3---
 G --0-----------0---0-------0---0--- --2-------2---2---x---2---2---2---
 D --0-------0---0---0-------0---0--- --2-------2---2---x---2---2---2---
 A --2-------2---2---2--------------- --0-------0---0-------------------
 D --5-------5----------------------- --0------------------------------- 

[49] mortal, wings its flight to realms of day,
let ring pick
 
 d ------2---2---0--0----------------- --------------0------0---0-------
 B ------5---5---3--3----------------- --------------3------3---3---0---
 G ------2---2---0--0----------------- --------------2------2---2---0---
 D ------4---4---2--2----------------- ----------2//4-------4---4---0---
 A ------4---4---2--2----------------- ------0--------------------------
 D ------2---2------------------------ --0------------------------------ 

[51] This my song, through endless a-
 
 --1-------2-------3-------4------- --1-------2-------3---4-- --1234-- 

strum let ring let ring ...
 
 d --0------------------------------- ------------------------- --------
 B --0---------------------------- ----//7\\\5---3--/7------ --------
 G --0---------------------------- ------------------------- --------
 D --0---------------------------- ----//7\\\5---4--/7------ --------
 A --0------------------------------- ------------------------- --------
 D ---------------------------------- ------------------------- -------- 

[53] ges, Je - sus led me a - - ll the
(on 4)
 
 --1-------2-------3-------4------- --1-------2-------3-------4------- 

ENDING
 
 d ------------------------------- -------------------------------
 B ------------------------------- -------------------------------
 G ------------------------------- -------------------------------
 D ------------------------------ ------------------(0)--
 A ------------------------------ ------------------------------
 D ------------------------------ ------------------------------ 

[56] way strum gently
hold note (let ring)
 
 d ------------------------------- --------------------------0-------
 B ---------------------------------- ----------------------2---3-------
 G ------------------------------- ---------------0--2-------2-------
 D ----------------------- ----------2//4------------4-------
 A --------------------------- ------0-------------------0-------
 D ------------------------------ --0-----------------------0------- 


Important: The song above is NOT stored on the Chordie server. The original song is hosted at www.christianguitar.org. Chordie works as a search engine and provides on-the-fly formatting. Chordie does not index songs against artists'/composers' will. To remove this song please click here.

Text color:
Chord color:
Chord grids: 
Font size:    
Page size: 

A A7 A7sus Asus D D2 Em7 F#m F#m7 G G2 Gmaj7 Gmaj7/A
Rate #1 of 1 versions

Login - add to songbook

SHARE PAGE  




You need to log in to post comments