Guitar Tabs, Chords and Lyrics
Server problems seems to be fixed. Chordie has been experiencing problems with songs disappearing. These issues now seems to be fixed, but still verifying the fix. If you find anything strange, please email admin@chordie.com.


Play the C Chord  Starflyer 59

Author/Artist: Starflyer 59
Title: Play the C Chord
Album: Everybody Makes Mistakes
Transcribed by: Kyle Stedman
Email: kstedman@rollins.edu
Written by Jason Martin / Some Blue Collar Songs (ASCAP)
(P) & (C) 1999 Tooth and Nail Records
Note, of course, that this is appoximate and must be made better by he/she
who is holding the guitar--listen to the record and you'll get the idea.
Notice also that this is Starflyer, and thus all strings are tuned down half
a step, which is important if playing with the record.
Intro (play this a couple times, loosely)
 
 --------- ------------------------------- ----------------------------
 --------- ------------------------------- ----------------------------
 --------- ------------------------------- ----------------------------
 --------- ------------------------------- ----------------------------
 --------- ---7----9----10---12----12b13r- ---7----9----10----12----15-
 -3b4-3b4- -0----0----0----0-----0-------- -0----0----0-----0-----0---- 

Intro chords can be played on an acoustic as such:
Em Cmaj7 Asus2 G (4x)
(best guess at indecipherable lyrics follow)
Is there t[Em]ime? [Cmaj7] [Asus2]
[G]Feeling the ligh[Em]ts.[Cmaj7] [Asus2]
[G]Putting a so[Em]ng to lif[Cmaj7]e,[Asus2]
[G]feeling the[Em] old tim[Cmaj7]e.[Asus2]
 
 --------- ---------------------
 --------- ---0----0----0----0--
 --------- ---------------------
 --------- ---------------------
 --------- ------3----0---------
 -3b4-3b4- -0--------------3---- 

And t[G]hese friends and m[Em]ine,[Cmaj7] [Asus2]
[G]who wrote the pri[Em]ze?[Cmaj7] [Asus2]
And [G]we write the s[Em]ongs you l[Cmaj7]ike[Asus2]
[G]in half the tim[Em]e.[Cmaj7] [Asus2] [G]
Chorus
[G] Something's wr[D]ong, it fixed the o[Am]ld mess.[Am]
Just p[C]lay the [G]C Chord [D] like it's som[Am]ething.[Am]
[C]Something's [G]wrong, [D] it fixed the o[Am]ld mess.[Am]
Just p[C]lay the [G]C Chord [D] like it's som[Am]ething,
l[G]ike it's so[Am]mething.
 
 -----------------10----10----10-----------------------------------------------
 -/8-8---8---//10----10----------10---10---10---10/-13-13-13-\-8---------------
 -/7---7---7------------------------9----9----9---/-12-12-12-\-7---------------
 ------------------------------------------------------------------------------
 ------------------------------------------------------------------------------
 ------------------------------------------------------------------------------

And happily, it's all repeated from there. The second verse is really just
the second half of the first verse, and once again the electric hitting root
of the chord, open b string, root of the chord, open b string jumps in half
way through. Chorus is the same. Same chord progression throughout the
"Like it's something you can see" bit, go wild. Cheers! Anyone with more
Starflyer stuff, especially off Everybody Makes Mistakes or Fashion Focus
feel free to feed me. Or Denison Marrs. Or Pedro the Lion.
Chords: (EADGBE)
Em 022000
Cmaj7 X32000
Asus2 X02200
G 320003
D XX0232
Am X02210

Important: The song above is NOT stored on the Chordie server. The original song is hosted at www.christianguitar.org. Chordie works as a search engine and provides on-the-fly formatting. Chordie does not index songs against artists'/composers' will. To remove this song please click here.

Text color:
Chord color:
Chord grids: 
Font size:    
Page size: 

Am Asus2 C Cmaj7 D Em G
Rate #1 of 1 versions

Login - add to songbook

SHARE PAGE  



You need to log in to post comments