Guitar Tabs, Chords and Lyrics
Update 25:10. 13:00. Site is back up running again. Songbooks are recovered. Woring on getting search back up..


Inseparable  Phil Keaggy

Transcription by: Danny Carlton
moeknutz@earthlink.net
NOTES:
This is a pretty straight forward transcription. Iím pretty much just giving
the chords here except for one small section of which I tabbed a few
measures. There are a few walking bass lines within the song. Arpeggiating
the chords as you go through those particular changes sounds great. I didnít
worry with trying to catch all of Philís other nuances. If you know the
changes, you can come up with your own licks as you go along (as long as
you have a decent understanding of chord/scale relationships). Have fun!
Verse
[Cm9] [Bb]  
[Cm9] [Bb]  
[C]C [Csus4]Csus4 [C]C [G]G G G/F# G/F (walking bass line)
Pre-Chorus
G aug A dim (not sure on chord names)
 
 E-------------------------------------------------------------------
 B-------------------------------------------------------------------
 G---8---5---8---5---8---5---8---5---8---5---8---5---8---5---8---5--- repeat
 D---5---5---5---5---5---5---5---5---7---7---7---7---7---7---7---7--- riff
 A---------------------- --------------------------------------------
 E-------------------------------------------------------------------

(Chorus)
[Bb] [Bb/Ab] [Bb/G(G-7)] [C/B] [C] [C/Bb] [Cm/A(A-7b5)] [Bb] 
[Gm7] [Fm] [G] [C] 
[Cm9]  
Verse 2 (same changes as 1)
Chorus 2x
Ending Riff (based on Cm9)
 
 E---------------------------------
 B---------------------------------
 G---------------------------------
 D-----------------------5---6----- repeat riff
 A---3------5---6------ -----------
 E----------------------------------

BEAT 1 2 3 4

Important: The song above is NOT stored on the Chordie server. The original song is hosted at www.christianguitar.org. Chordie works as a search engine and provides on-the-fly formatting. Chordie does not index songs against artists'/composers' will. To remove this song please click here.

Text color:
Chord color:
Chord grids: 
Font size:    
Page size: 

Bb Bb/Ab C C/B Cm9 Csus4 Fm G Gm7
Rate #1 of 1 versions

Jango Player

Login - add to songbook

SHARE PAGE  



You need to log in to post comments