Guitar Tabs, Chords and Lyrics
Major upgrade!! After one year development the new version of Chordie is now online! Please give feedback.


Almost Lover  A Fine Frenzy

okay so i'm tabbing this song in the drop D version that i made. i don't think a
drop D version has been made before? but it sounds pretty good so yeahhh check it out.
The chords used in the song are in chromatic order:
Am B5? C Dm Em F G
 
 |-----------------5-----------------|
 |-10---12---13----3----5----6----8--|
 |-9----11---12----2----4----5----7--|
 |-7----9----10----0----2----3----5--|
 |-7----9----10----0----2----3----5--|
 |-7----9----10----0----2----3----5--|

INTRO:
okay so now i know this isn't the exact piano part, but it sounds kinda like it but it's
cool too.
 
 |-------------------------------------|
 |-5-----------------------------------|
 |---2---2---4---5---5-5---------------| x2
 |-----2---2---2---2-----7---7---7---7-|
 |-------------------------8---8---8---|
 |-------------------------------------|

VERSE 1:
Okay so I just tabbed out the lyrics and some piano with a clean tone. quite beautiful.
 
 |-------------------------|
 |-17-15-------17-15-------|
 |-------17-14-------17-14-|
 |-------------------------|
 |-------------------------|
 |-------------------------|
 |-------------------------|
 |-17-15----15----15-------|
 |-------17----17----14-17-|
 |-------------------------|
 |-------------------------|
 |-------------------------|

Images..... (piano)
 
 |--------------------------|
 |-17-15--------5-5---------|
 |-------17-14------7---7---|
 |--------------------8---8-|
 |--------------------------|
 |--------------------------|

Your finger[Am]tips across my skin
The palm trees [F]swaying in the wind
Ima[Am]ges[F]
 
 |-------------------------|
 |-17-15-------17-15-------|
 |-------17-14-------17-14-|
 |-------------------------|
 |-------------------------|
 |-------------------------|
 |-------------------------|
 |-17-15----15----15-17----|
 |-------17----17-------17-|
 |-------------------------|
 |-------------------------|
 |-------------------------|

Clever trick (piano)
 
 |--------------------------|
 |-17-15--------5-5---------|
 |-------17-14~-----7---7---|
 |--------------------8---8-|
 |--------------------------|
 |--------------------------|

You sang me S[Am]panish lullabies
The sweetest [F]sadness in your eyes
Clever tr[Am]ick[F]
PRECHORUS:
 
 |--------------------------15~-----------|
 |----15~-17~-15-17~-15-17~-----17-17-17~-|
 |-17-------------------------------------|
 |----------------------------------------|
 |----------------------------------------|
 |----------------------------------------|
 |----------------------------|
 |-----15----15----15~--------|
 |-17~----17----17-----14-12~-|
 |----------------------------|
 |----------------------------|
 |----------------------------|

Well I [G]never want to see you un[C]happy
I [Dm]thought you'd want the same for me[G]
CHORUS:
 
 |-------------------------|
 |-17-17-15----------------|
 |----------17-17-12-14-17-|
 |-------------------------|
 |-------------------------|
 |-------------------------|
 |-----------15----------|
 |-17-15~-15----17-15----|
 |--------------------17-|
 |-----------------------|
 |-----------------------|
 |-----------------------|
 |----------------------------|
 |-15-17-15----------15-------|
 |----------17-14-17----17-14-|
 |----------------------------|
 |----------------------------|
 |----------------------------|
 |----------------------------|
 |----15-------15----17-15----|
 |-17----17-17----17-------17-|
 |----------------------------|
 |----------------------------|
 |----------------------------|
 |-------------------------|
 |-17-17-15----------------|
 |----------17-17-12-14-17-|
 |-------------------------|
 |-------------------------|
 |-------------------------|
 |-----------15----------|
 |-17-15~-15----17-15----|
 |--------------------17-|
 |-----------------------|
 |-----------------------|
 |-----------------------|
 |----------------------------|
 |-15-15-17-15-------15-------|
 |-------------17-17----17-14-|
 |----------------------------|
 |----------------------------|
 |----------------------------|
 |-----------------------------------|
 |-----15----15~----15-----17-15-----|
 |-17~----17-----17----17~-------17~-|
 |-----------------------------------|
 |-----------------------------------|
 |-----------------------------------|

[C]Goodbye, my almost lover
[G]Goodbye, my hopeless dream
[Dm]I'm trying not to think about you
[F]Can't you just let me be?
[C]So long, my luckless romance
[G]My back is turned on you
[Dm]I should've known you'd bring me heartache
[F]Almost lovers always [C]do
VERSE 2:
 
 |-------------------------|
 |-17-15-------17-15-------|
 |-------17-14-------17-14-|
 |-------------------------|
 |-------------------------|
 |-------------------------|
 |----------------------------|
 |-17-15----15-15-16p15-------|
 |-------17-------------17-17-|
 |----------------------------|
 |----------------------------|
 |----------------------------|
 |---------------------------------------------------------------|
 |-17~-17-17-15----15--------------------------------------------|
 |--------------17----17-16-17-16~-14-16-17-14~-16-17-14~-16-17~-|
 |---------------------------------------------------------------|
 |---------------------------------------------------------------|
 |---------------------------------------------------------------|

We walked a[Am]long a crowded street
You took my [F]hand and danced with me
Ima[Am]ges[F]
 
 |----------------------------|
 |----17-15-------17-15-------|
 |-17-------17-14-------17-14-|
 |----------------------------|
 |----------------------------|
 |----------------------------|
 |----15-15-15----17-15-15----17-15-------------15~----------|
 |-------------17----------17-------17-15-17-17-----17-15-17-|
 |-14--------------------------------------------------------|
 |-----------------------------------------------------------|
 |-----------------------------------------------------------|
 |-----------------------------------------------------------|

No...
 
 |-20-19-17-19-17-15~-|
 |--------------------|
 |--------------------|
 |--------------------|
 |--------------------|
 |--------------------|

And when you [Am]left you kissed my lips
You told me you would [F]never ever forget these im[Am]ages
No...[F]
PRECHORUS:
 
 |--------------------------15~-----------|
 |----15~-17~-15-17~-15-17~-----17-17-17~-|
 |-17-------------------------------------|
 |----------------------------------------|
 |----------------------------------------|
 |----------------------------------------|
 |------------------------15----------------|
 |-----15----15----15~-15----17h18p17-15h17-|
 |-17~----17----17--------------------------|
 |------------------------------------------|
 |------------------------------------------|
 |------------------------------------------|

Well [G]I never want to see you un[C]happy
I [Dm]thought you'd want the same for [G]me
CHORUS:
 
 |-------------------------|
 |-17-17-15----------------|
 |----------17-17-12-14-17-|
 |-------------------------|
 |-------------------------|
 |-------------------------|
 |--------------15----------|
 |-17-15-----------17-15----|
 |-------17~-17----------17-|
 |--------------------------|
 |--------------------------|
 |--------------------------|
 |-----------------------------|
 |-15-17~-15----------15-------|
 |-----------17-14-17----17-14-|
 |-----------------------------|
 |-----------------------------|
 |-----------------------------|
 |-----------------------------|
 |-----15-------15----17-15----|
 |-17~----17-17----17-------17-|
 |-----------------------------|
 |-----------------------------|
 |-----------------------------|
 |----------------------------|
 |-17-17-15-------------------|
 |----------17-17-12-14-17-14-|
 |----------------------------|
 |----------------------------|
 |----------------------------|
 |-----------15-----------|
 |-17-15~-15----17-15-----|
 |--------------------17~-|
 |------------------------|
 |------------------------|
 |------------------------|
 |----------------------------|
 |-15-15-17-15-------15-------|
 |-------------17-17----17-14-|
 |----------------------------|
 |----------------------------|
 |----------------------------|
 |-----------------------------------|
 |-----15----15~----15-----17-15-----|
 |-17~----17-----17----17~-------17~-|
 |-----------------------------------|
 |-----------------------------------|
 |-----------------------------------|

[C]Goodbye, my almost lover
[G]Goodbye, my hopeless dream
[Dm]I'm trying not to think about you
[F]Can't you just let me be?
[C]So long, my luckless romance
[G]My back is turned on you
[Dm]I should've known you'd bring me heartache
[F]Almost lovers always [C]do[C] [B5]
BRIDGE:
not sure if this is correct but play around with it.
 
 |-15-17-17-17p15-17-17-15-17-15-|
 |-------------------------------|
 |-------------------------------|
 |-------------------------------|
 |-------------------------------|
 |-------------------------------|
 |----15-15-15-------------15b17-|
 |-17----------15-17-17p15-------|
 |-------------------------------|
 |-------------------------------|
 |-------------------------------|
 |-------------------------------|
 |-15-17-17-17p15-17-17-15-17-15-|
 |-------------------------------|
 |-------------------------------|
 |-------------------------------|
 |-------------------------------|
 |-------------------------------|
 |-15-15~-15-------------|
 |-----------17-17-15b17-|
 |-----------------------|
 |-----------------------|
 |-----------------------|
 |-----------------------|
 |-17-17~-17p15-17-17p15-17-15-|
 |-----------------------------|
 |-----------------------------|
 |-----------------------------|
 |-----------------------------|
 |-----------------------------|
 |----15-15----15-15-20~-------|
 |-17-------17-----------------|
 |-----------------------17-14-|
 |-----------------------------|
 |-----------------------------|
 |-----------------------------|
 |--------------------------------------------------15--------------|
 |----17~-15-------17-15~----15-15-15-17-15~----15~----17-18p17-15~-|
 |-14--------17-14--------17-----------------17---------------------|
 |------------------------------------------------------------------|
 |------------------------------------------------------------------|
 |------------------------------------------------------------------|

[Am]I cannot go to the oc[G]ean
I cannot drive the streets at [F]night
I cannot wake up in the mor[Em]ning
Without you on my mind[Am]
So you're gone and I'm haun[G]ted
And I bet you are just [F]fine
Did I make it that eas[Dm]y
To walk right in and out of my [G]life?
CHORUS:
 
 |--------------------------|
 |-17-17-15-----------------|
 |-----------17-17-12-14-17-|
 |--------------------------|
 |--------------------------|
 |--------------------------|
 |-----------15-----------|
 |-17-15~-15----17-15-----|
 |--------------------17~-|
 |------------------------|
 |------------------------|
 |------------------------|
 |----------------------------|
 |-15-17-15----------15----15-|
 |----------17-14-17----17----|
 |----------------------------|
 |----------------------------|
 |----------------------------|
 |-------------15-17-15~-|
 |-----------------------|
 |-17-14-17-17-----------|
 |-----------------------|
 |-----------------------|
 |-----------------------|
 |----------------------------|
 |-17-17-15-------------------|
 |----------17-17-12-14-17-14-|
 |----------------------------|
 |----------------------------|
 |----------------------------|
 |-----------15-17-15-17-15-|
 |-17-15~-15----------------|
 |--------------------------|
 |--------------------------|
 |--------------------------|
 |--------------------------|
 |----------------------------|
 |-15-15-17-15-------15-------|
 |-------------17-17----17-14-|
 |----------------------------|
 |----------------------------|
 |----------------------------|
 |-------------------------------------------|
 |-----15----15~----15-----17~-15----15------|
 |-17~----17-----17----17~--------17----17~~-|
 |-------------------------------------------|
 |-------------------------------------------|
 |-------------------------------------------|

[C]Goodbye, my almost lover
[G]Goodbye, my hopeless dream
[Dm]I'm trying not to think about you
[F]Can't you just let me be?
[C]So long, my luckless romance
[G]My back is turned on you
[Dm]I should've known you'd bring me heartache
[F]Almost lovers always...
[C]Do

Important: The song above is NOT stored on the Chordie server. The original song is hosted at www.guitaretab.com. Chordie works as a search engine and provides on-the-fly formatting. Chordie does not index songs against artists'/composers' will. To remove this song please click here.

Text color:
Chord color:
Chord grids: 
Font size:    
Page size: 

Am B5 C Dm Em F G
Rate #2 of 19 versions

Jango Player

Login - add to songbook

SHARE PAGE  




You need to log in to post comments