Guitar Tabs, Chords and Lyrics
Major upgrade!! After one year development the new version of Chordie is now online! Please give feedback.


Waiting for Daylight   Adema

 
 eb(--------------------------)
 bb(--------------------------)
 gb(--------------------------)
 db(--5--4--5--4--5--4-542----)
 ab(----------------------542-)
 Db(--------------------------)

 


 


 verse x4


 

 
 eb(-----------------------------------)
 bb(-----------------------------------)
 gb(-----------------------------------)
 db(--5-5-5-5-5-5-5-5-4-4-4-4-77775555-)
 ab(--5-5-5-5-5-5-5-5-4-4-4-4-77775555-)
 Db(--5-5-5-5-5-5-5-5-4-4-4-4-77775555-)

 


 


 verse (lead) x2


 

 
 eb(---------------)
 bb(--8---7---10-8-)
 gb(---------------)
 db(---------------)
 ab(---------------)
 Db(---------------)

 


 


 verse (lead) continued x2


 

 
 eb(--7---7---10-8-)
 bb(--8---7---10-8-)
 gb(---------------)
 db(---------------)
 ab(---------------)
 Db(---------------)

 


 the lead stays about the same throughout the whole song


 


 chorus x3


 

 
 eb(----------------------)
 bb(----------------------)
 gb(----------------------)
 db(--5-5-55-55-4-4-44-44-)
 ab(--5-5-55-55-4-4-44-44-)
 Db(--5-5-55-55-4-4-44-44-)

 


 


 chorus continued x4


 

 
 eb(---------------)
 bb(---------------)
 gb(---------------)
 db(--2-22-2/4-4/7-)
 ab(--2-22-2/4-4/7-)
 Db(--2-22-2/4-4/7-)

 


 


 bridge x4


 

 
 eb(----------------)
 bb(----------------)
 gb(------44444-5-4-)
 db(--4---44444-5-4-)
 ab(--4---22222-3-2-)
 Db(--4-------------)

 


 


 outro x6


 

 
 eb(-------------)
 bb(-------------)

 


 gb(--4-44-44444-)


 [db(--4-44-44444-)]  


 [ab(--2-22-22222-)]  


 

 
 Db(-------------)

 


 


 this part sound like a panio x3 and then the last two notes


 

 
 eb(-------------------)(------)
 bb(--8-8-8-10-7-7-7---)(--8-8-)
 gb(-----------------7-)(------)
 db(-------------------)(------)
 ab(-------------------)(------)
 Db(-------------------)(------)


Important: The song above is NOT stored on the Chordie server. The original song is hosted at www.guitaretab.com. Chordie works as a search engine and provides on-the-fly formatting. Chordie does not index songs against artists'/composers' will. To remove this song please click here.

This song is displayed as text-only. Transposing and tuning is only available for chordpro-songs.
Rate #2 of 2 versions

Login - add to songbook

SHARE PAGE  




You need to log in to post comments