Guitar Tabs, Chords and Lyrics
Major upgrade!! After one year development the new version of Chordie is now online! Please give feedback.


Gone Crazy  Alan Jackson

capo - 3
intro
[D] [G] [A]  
 
 e--------0h2------2p0------------------------0---------|
 b-----3---------------3--------0-----------2-----------|
 g---2--------------------------0-----------2-----------|
 d-0------------0-------------0---0-------2-------------|
 a-------------------------------------0----------------|
 E--------------------------3---------------------------|

[D] [G] [A]  
 
 e-------0h2-------2p0----------------------------0-----|
 b-----3---------------3--------0-------------0h2-------|
 g---2--------------------------0-----------2-----------|
 d-0------------0-------------0---0-------2-------------|
 a-------------------------------------0----------------|
 E--------------------------3---------------------------|

Continue same pattern for 1st verse but add this after the last A chord.
Second verse just strum.
[Em] [A]  
 
 e------------------------------------------------------|
 b-------0-----------0-------------2-----------2--------|
 g-------0-----------0-------------2-----------2--------|
 d----2-----2-----2-----2-------2-----2-----2-----2-----|
 a-------------------------0----------------------------|
 E-0-----------0-------------------------3--------------|

[Em] [A]  
 
 e-------0----------------------------------------------|
 b-------0-----------0------------2-----------0---------|
 g-------0-----------0------------2-----------0---------|
 d----2-----2-----2-----2------2-----2-----2-----2------|
 a--------------------------0-----------0---------------|
 E-0-----------0----------------------------------------|

1st verse
[D]Here I am alone again tonight[G]
in t[A]his old empty house[D] [G] [A]
It's [D]hard to learn what you don't think you need[G]
[A]you can't live without[D] [G] [A]
[Em]Never leave the sound of the telephone[A]
[Em]but ever since you left I've been[A] gone
chorus
Gone [G]Crazy
goin' out of my mind
I've a[D]sked myselfthe reasons
at least a thousand times
[Em]goin' u[G]p and down this hallway
tryin to leave the pain behind[D]
[Em]ever since you left[A]
I've been[D] gone
Repeat intro
2nd verse
[D]I never saw your face this many times[G]
when [A]you where really here[D] [G] [A]
The t[D]hings you said I never understand[G]
[A]are now crsytal clear[D] [G] [A]
[Em]I never spent this much time[A] at home
but [Em]ever since you left
I've been[A] gone
Chorus 2x
then fade with this
Gone [D] Gone[G]
[A]I've been[D] gone [G] 6x end on A chord

Important: The song above is NOT stored on the Chordie server. The original song is hosted at www.guitaretab.com. Chordie works as a search engine and provides on-the-fly formatting. Chordie does not index songs against artists'/composers' will. To remove this song please click here.

Text color:
Chord color:
Chord grids: 
Font size:    
Page size: 

A D Em G
Rate #1 of 12 versions

Jango Player

Login - add to songbook

SHARE PAGE  




You need to log in to post comments