Guitar Tabs, Chords and Lyrics
Server problems seems to be fixed. Chordie has been experiencing problems with songs disappearing. These issues now seems to be fixed, but still verifying the fix. If you find anything strange, please email admin@chordie.com.


Pills  Blackfield

Artist - Blackfield
*********************
Song - Pills
**************
Album - IV
************
Tabbed By - Ayreon77
**********************
Acoustic picking - play through the VERSES
*****************
[C#m] [G#m]  
 
 [-----------------|----------------|---------------------------------]
 [-----5-4-----5-4-|-------4------4-|-------4------4---------4------4-]
 [----------6------|-----6------6---|-----4------4---------4------4---]
 [---6-------------|---6------6-----|---6------6---------6------6-----]
 [-4---------------|-4--------------|---------------------------------]
 [-----------------|----------------|-4----------------4--------------]

[F#m] [A] [G#m]  
 
 [-------2------2-|----------------|----------------]
 [-----2------2---|-------5------5-|-------4------4-]
 [---2------2-----|-----6------6---|-----4------4---]
 [-4--------------|---7------7-----|---6------6-----]
 [----------------|-7--------------|-6--------------]
 [----------------|----------------|----------------]

______________________________________________________________________
VERSE 1
********
[C#m]There's a pill for every hour
These days you don't have to [G#m]feel
[F#m]Deducting all your [A]fears and [G#m]make them disappear[C#m]
______________________________________________________________________
VERSE 2
********
[C#m]There's a pill for every hour
These days you don't have to [G#m]feel
[F#m]Deducting all your [A]fears and [G#m]make them disappear[C#m]
______________________________________________________________________
00:58
BRIDGE
*******
HEAVY PART
***********
[C#m] It's like [B]driving with no [A]lights tonight,
[G#m]they will get you home, [F#m]they will love the show
[C#m] Theres an [B]exist for the [A]sacred smile,
[G#m]they lead you to the door and [F#m]cover all your holes, that get in there.
______________________________________________________________________
Back to picking
****************
Then repeat VERSE 1 and Bridge - play this below with picking
MUTE with right hand maybe some wha wha and delay
01:36
 
 [-------------------------------------------------]this is not
 [-------------------------------------------------]100% but its
 [-6-6-9-6-8-------6-6-9-6-8-------6-6-6-9-6-8-----]around these
 [-----------9-6-------------9-6---------------9-6-]notes
 [-------------------------------------------------]
 [-------------------------------------------------]

______________________________________________________________________
02:32
Come back in with picking
***************************
02:40
[C#m]There's a pill for every hour
02:47
reapeat mute electric like above
______________________________________________________________________
02:54
Heavy guitar notes
*******************
 
 [---------------|------------------|------------------|------------------]
 [---------------|------------------|------------------|------------------]
 [---------------|------------------|------------------|------------------]
 [----6--4-------|-------6--4-------|-------6--4-------|-------6--4-------]
 [-4--------7--6-|----4--------7--6-|----4--------7--6-|----4--------7--6-]
 [---------------|-7----------------|-7----------------|-7----------------]
 [------]
 [------]
 [------]
 [------]

[----4-] 
[-7----] 
Great tune. Enjoy.............

Important: The song above is NOT stored on the Chordie server. The original song is hosted at www.guitaretab.com. Chordie works as a search engine and provides on-the-fly formatting. Chordie does not index songs against artists'/composers' will. To remove this song please click here.

Text color:
Chord color:
Chord grids: 
Font size:    
Page size: 

A B C#m F#m G#m
Rate #0 of 1 versions

Jango Player

Login - add to songbook

SHARE PAGE  




You need to log in to post comments