Guitar Tabs, Chords and Lyrics
Major upgrade!! After one year development the new version of Chordie is now online! Please give feedback.


Love's the Only Rule  Bon Jovi

Bon Jovi / The Circle
9. Love“s the Only Rule
(standard tuning )
Intro: B E B E
I [B]don't give a damn how it'[E]s supposed to be
Li[G#m]ght my world for you, it [F#]don't work for me
Yo[E]u write your truth and I [B]write mine
On[E]e man's ceiling's an[F#]other man's sky high
Fl[B]ying like an aerop[E]lane
Cr[B]y like a lonely whistle of a lo[E]ng black train
Da[G#m]nce in the pouring rain
Sp[F#]it in the eye of a hurricane
Wh[E]o said life's got to be so cr[F#]uel
Love's the only rule[B] [E]
(Same progression until...)
(solo)
[B] [E] [B] [E]  
Solo:
 
 e|---------------------------------------------------------------------------|
 B|---16----------------------------------------------------------------------|
 G|------16-----16-----18-----16--18--20--13---13h15-11-11h13-9-9-9/8---------|
 D|---------16-----16-----16------------------------------------------9-------|
 A|---------------------------------------------------------------------------|
 E|---------------------------------------------------------------------------|
 e|---------------------------------------------------------------------------|
 B|---------------------------------------------------------------------------|
 G|------8-9-11-11br--9-8-9p8-----------8-8-11b----8-8--11br--9-8-------------|
 D|----9----------------------9-----------------------------------------------|
 A|-----------------------------9/11------------------------------------------|
 E|---------------------------------------------------------------------------|
 e|---------------------------------------------------------------------------|
 B|--------------------------------------------------4/12--12--14b--14b-------|
 G|----------------------6/8----8-8br---6--8---4--4---------------------------|
 D|---2-2-----6-4---4-6-------------------------------------------------------|
 A|---2-2---------------------------------------------------------------------|
 E|---------------------------------------------------------------------------|

[E]Might be a wrecking b[F#]all
Or just a wake up c[G#m]all
Tonight I let the piece[A]s fall
(Woohoo's x3)
[B] [E] [B] [E]  
[B] [E] [B] [E]  
[G#m] [F#] ...I“m gonna f[B]ly
like an aeroplane
Cr[E]y like the whistle of a long black train
Da[B]nce in the pouring rain
I'[E]m alive like a lonely note from John Coltrane
Ru[G#m]n, like it's a getaway
[F#]Say those things you shouldn't say
When lo[B]ve
Love's the only r[E]ule
If lo[B]ve
Love's the only ru[E]le
Our lo[B]ve
Love's the only ru[E]le
Oh lo[B]ve
Is the only ru[E]le
(Woohoo's x3)

Important: The song above is NOT stored on the Chordie server. The original song is hosted at www.guitaretab.com. Chordie works as a search engine and provides on-the-fly formatting. Chordie does not index songs against artists'/composers' will. To remove this song please click here.

Text color:
Chord color:
Chord grids: 
Font size:    
Page size: 

A B E F# G#m
Rate #1 of 2 versions

Login - add to songbook

SHARE PAGE  




You need to log in to post comments