Guitar Tabs, Chords and Lyrics
Major upgrade!! After one year development the new version of Chordie is now online! Please give feedback.


Runaway  Bon Jovi

Its' my first Tab, so i hope you dont have Problems Playing.
Im Shore it s' not 100% right, But it Sounds Right.
Note: The [Repeat]'s are just for easyer reading, There tabbed Also.(you will understand
what i mean during The Tab, just dont get Confused)
Good Luck.
Intro
 
 ---------------------------------------------------------------------------|
 -----------------------(5)-------------------------------------------------|
 -----------------------(5)-------------------------------------------------|
 ------------------------------------------------------------x--------------|
 ---7-----------5---------------------7-----------5----------xScratch-------|
 -0-5---------0-3-------------------0-5---------0-3-------------------------|

[A5] [G5] [A5] [G5] 
Vers (Part1)
 
 ---------------------------------------------|
 ---------------------------------------------|
 ---------------------------------------------|
 ---------------------------------------------|
 ---7-----------5-------5-2-----3---3-5---5-7-|
 -0-5---------0-3-------3-0---0-1---1-3---3-5-|

[A5] [G5] [E5] [F5] [G5] [A5] 
Vers (Part2)
 
 ------------------------------------------------------------------|
 ------------------------------------------------------------------|
 ------------------------------------------------------------------|
 ------------------------------------------------------------------|
 -7-7-7-7-7-7-7-7-7-7-7-7-7-7-7-7--5-5-5-5-5-5-5-5-5-5-5-5-5-5-5-5-|
 -5-5-5-5-5-5-5-5-5-5-5-5-5-5-5-5--3-3-3-3-3-3-3-3-3-3-3-3-3-3-3-3-|

[A5] [G5]  
 
 ------------------------------ ------------------------|
 ------------------------------ ------------------------|
 ------------------------------ -------------------5-5--|
 ------------------------------ -------------------5-5--|
 -2-2-2-2-2-2-2-2-2-2-2-2--5-5- --7----2-3-2------------|
 -0-0-0-0-0-0-0-0-0-0-0-0--3-3- --5--5--------3-5-------|

[E5] [G5] [A5]  
Vers (Part3)
[E-] [A-] [D] 
 
 --(12)--------------------5-------------------------------------|
 ------(12)-------------------5----------------------------------|
 ----------(12)------------------5----------(7)---(7)(7)---------|
 --------------(12)-----------------7----------(7)---(7)-----5-5-|
 ------------------------------------------------------------3-2-|
 ----------------------------------------------------------------|

Chorus
 
 ------------------------------------------------------------------|
 ------------------------------------------------------------------|
 ------------------------------------------------------------------|
 ------------------------------------------------------------------|
 -7-7-7-7-7-7-7-7-7-7-7-7-7-7-7-7--5-5-5-5-5-5-5-5-5-5-5-5-5-5-5-5-|
 -5-5-5-5-5-5-5-5-5-5-5-5-5-5-5-5--3-3-3-3-3-3-3-3-3-3-3-3-3-3-3-3-|

[A5] [G5]  
[A5] 
 
 -----------------------------------------------------------------------------|
 -----------------------------------------------------------------------------|
 -----------------------------------------------------------------------------|
 -5-5-5-5-5-5-5-5-------------------------------------------------------------|
 -3-3-3-3-3-3-3-3--2-2--5-5--7-7-7-5-7-5-7---5-5-5-5-5-5-5-5--2-2-2-2-2-2-2-2-|
 ------------------0-0--3-3--5-5-5-3-5-3-5---3-3-3-3-3-3-3-3--0-0-0-0-0-0-0-0-|

C5 E5 G5 A5 G5|A5|G5|A5 G5 E5
Vers (Part2)
 
 ------------------------------------------------------------------|
 ------------------------------------------------------------------|
 ------------------------------------------------------------------|
 ------------------------------------------------------------------|
 -7-7-7-7-7-7-7-7-7-7-7-7-7-7-7-7--5-5-5-5-5-5-5-5-5-5-5-5-5-5-5-5-|
 -5-5-5-5-5-5-5-5-5-5-5-5-5-5-5-5--3-3-3-3-3-3-3-3-3-3-3-3-3-3-3-3-|

[A5] [G5]  
 
 ------------------------------ ------------------------|
 ------------------------------ ------------------------|
 ------------------------------ -------------------5-5--|
 ------------------------------ -------------------5-5--|
 -2-2-2-2-2-2-2-2-2-2-2-2--5-5- --7----2-3-2------------|
 -0-0-0-0-0-0-0-0-0-0-0-0--3-3- --5--5--------3-5-------|

[E5] [G5] [A5]  
[Repeat] 
Vers (Part2)
 
 ------------------------------------------------------------------|
 ------------------------------------------------------------------|
 ------------------------------------------------------------------|
 ------------------------------------------------------------------|
 -7-7-7-7-7-7-7-7-7-7-7-7-7-7-7-7--5-5-5-5-5-5-5-5-5-5-5-5-5-5-5-5-|
 -5-5-5-5-5-5-5-5-5-5-5-5-5-5-5-5--3-3-3-3-3-3-3-3-3-3-3-3-3-3-3-3-|

[A5] [G5]  
 
 ------------------------------ ------------------------|
 ------------------------------ ------------------------|
 ------------------------------ -------------------5-5--|
 ------------------------------ -------------------5-5--|
 -2-2-2-2-2-2-2-2-2-2-2-2--5-5- --7----2-3-2------------|
 -0-0-0-0-0-0-0-0-0-0-0-0--3-3- --5--5--------3-5-------|

[E5] [G5] [A5]  
Vers (Part3)
[E-] [A-] [D] 
 
 --(12)--------------------5-------------------------------------|
 ------(12)-------------------5----------------------------------|
 ----------(12)------------------5----------(7)---(7)(7)---------|
 --------------(12)-----------------7----------(7)---(7)-----5-5-|
 ------------------------------------------------------------3-2-|
 ----------------------------------------------------------------|

Chorus
 
 ------------------------------------------------------------------|
 ------------------------------------------------------------------|
 ------------------------------------------------------------------|
 ------------------------------------------------------------------|
 -7-7-7-7-7-7-7-7-7-7-7-7-7-7-7-7--5-5-5-5-5-5-5-5-5-5-5-5-5-5-5-5-|
 -5-5-5-5-5-5-5-5-5-5-5-5-5-5-5-5--3-3-3-3-3-3-3-3-3-3-3-3-3-3-3-3-|

[A5] [G5]  
[A5] 
 
 -----------------------------------------------------------------------------|
 -----------------------------------------------------------------------------|
 -----------------------------------------------------------------------------|
 -5-5-5-5-5-5-5-5-------------------------------------------------------------|
 -3-3-3-3-3-3-3-3--2-2--5-5--7-7-7-5-7-5-7---5-5-5-5-5-5-5-5--2-2-2-2-2-2-2-2-|
 ------------------0-0--3-3--5-5-5-3-5-3-5---3-3-3-3-3-3-3-3--0-0-0-0-0-0-0-0-|

C5 E5 G5 A5 G5|A5|G5|A5 G5 E5
Solo (backing)
 
 -----------------------------------------------------|
 -----------------------------------------------------|
 -----------------------------------------------------|
 -----------------5-----7------------------5----------|
 -5-----5---------3-----5------5-----5-----3-----5----|
 -7-----7----------------------7-----7-----------3----|

[A5] [C5] [D5] [A5] [C5] [G5] 
[Repeat] 
 
 -----------------------------------------------------|
 -----------------------------------------------------|
 -----------------------------------------------------|
 -----------------5-----7------------------5----------|
 -5-----5---------3-----5------5-----5-----3-----5----|
 -7-----7----------------------7-----7-----------3----|

[A5] [C5] [D5] [A5] [C5] [G5] 
Vers (Part3)
[E-] [A-] [D] 
 
 --(12)--------------------5-------------------------------------|
 ------(12)-------------------5----------------------------------|
 ----------(12)------------------5----------(7)---(7)(7)---------|
 --------------(12)-----------------7----------(7)---(7)-----5-5-|
 ------------------------------------------------------------3-2-|
 ----------------------------------------------------------------|

Chorus
 
 ------------------------------------------------------------------|
 ------------------------------------------------------------------|
 ------------------------------------------------------------------|
 ------------------------------------------------------------------|
 -7-7-7-7-7-7-7-7-7-7-7-7-7-7-7-7--5-5-5-5-5-5-5-5-5-5-5-5-5-5-5-5-|
 -5-5-5-5-5-5-5-5-5-5-5-5-5-5-5-5--3-3-3-3-3-3-3-3-3-3-3-3-3-3-3-3-|

[A5] [G5]  
[A5] 
 
 -----------------------------------------------------------------------------|
 -----------------------------------------------------------------------------|
 -----------------------------------------------------------------------------|
 -5-5-5-5-5-5-5-5-------------------------------------------------------------|
 -3-3-3-3-3-3-3-3--2-2--5-5--7-7-7-5-7-5-7---5-5-5-5-5-5-5-5--2-2-2-2-2-2-2-2-|
 ------------------0-0--3-3--5-5-5-3-5-3-5---3-3-3-3-3-3-3-3--0-0-0-0-0-0-0-0-|

C5 E5 G5 A5 G5|A5|G5|A5 G5 E5
[Repeat Cborus till Ending] 
Chorus
 
 ------------------------------------------------------------------|
 ------------------------------------------------------------------|
 ------------------------------------------------------------------|
 ------------------------------------------------------------------|
 -7-7-7-7-7-7-7-7-7-7-7-7-7-7-7-7--5-5-5-5-5-5-5-5-5-5-5-5-5-5-5-5-|
 -5-5-5-5-5-5-5-5-5-5-5-5-5-5-5-5--3-3-3-3-3-3-3-3-3-3-3-3-3-3-3-3-|

[A5] [G5]  
[A5] 
 
 -----------------------------------------------------------------------------|
 -----------------------------------------------------------------------------|
 -----------------------------------------------------------------------------|
 -5-5-5-5-5-5-5-5-------------------------------------------------------------|
 -3-3-3-3-3-3-3-3--2-2--5-5--7-7-7-5-7-5-7---5-5-5-5-5-5-5-5--2-2-2-2-2-2-2-2-|
 ------------------0-0--3-3--5-5-5-3-5-3-5---3-3-3-3-3-3-3-3--0-0-0-0-0-0-0-0-|

C5 E5 G5 A5 G5|A5|G5|A5 G5 E5
Chorus
 
 ------------------------------------------------------------------|
 ------------------------------------------------------------------|
 ------------------------------------------------------------------|
 ------------------------------------------------------------------|
 -7-7-7-7-7-7-7-7-7-7-7-7-7-7-7-7--5-5-5-5-5-5-5-5-5-5-5-5-5-5-5-5-|
 -5-5-5-5-5-5-5-5-5-5-5-5-5-5-5-5--3-3-3-3-3-3-3-3-3-3-3-3-3-3-3-3-|

[A5] [G5]  
[A5] 
 
 -----------------------------------------------------------------------------|
 -----------------------------------------------------------------------------|
 -----------------------------------------------------------------------------|
 -5-5-5-5-5-5-5-5-------------------------------------------------------------|
 -3-3-3-3-3-3-3-3--2-2--5-5--7-7-7-5-7-5-7---5-5-5-5-5-5-5-5--2-2-2-2-2-2-2-2-|
 ------------------0-0--3-3--5-5-5-3-5-3-5---3-3-3-3-3-3-3-3--0-0-0-0-0-0-0-0-|

C5 E5 G5 A5 G5|A5|G5|A5 G5 E5

Important: The song above is NOT stored on the Chordie server. The original song is hosted at www.guitaretab.com. Chordie works as a search engine and provides on-the-fly formatting. Chordie does not index songs against artists'/composers' will. To remove this song please click here.

Text color:
Chord color:
Chord grids: 
Font size:    
Page size: 

A5 C5 D D5 E5 F5 G5
Rate #2 of 10 versions

Jango Player

Login - add to songbook

SHARE PAGE  



You need to log in to post comments