Guitar Tabs, Chords and Lyrics
Major upgrade!! After one year development the new version of Chordie is now online! Please give feedback.


Wanted Dead or Alive  Bon Jovi

 
 e[--------------------------------------------------------------------]
 B[-----------------10---------10------------8-------8--------6-------6]
 G[----------------------10----------------------9----------------7----]
 D[---------0--------------------------0-----------------0-------------]
 A[--------------------------------------------------------------------]
 E[--------------------------------------------------------------------]
 e[--------------------------------------------------------------------]
 B[----------5-------5-------------1--------1------------0---------0---]
 G[--------------5---------------------2----------------------0--------]
 D[-----0-------------------0----------------------0-------------------]
 A[--------------------------------------------------------------------]
 E[--------------------------------------------------------------------]
 e[--------------------------------------------------------------------]
 G[--------------------------------------------------------------------]
 B[--------4----2------------------------------------------------------]
 D[------------------3-------------------------------------------------]
 A[--------------------------------------------------------------------]
 E[--------------------------------------------------------------------]

2X
 
 e[------------------------------0------------------------------------]
 G[-----------------------------------3-------------------------------]
 B[-----------------------------------------2-------------------------]
 D[-----------------0---3--0------------------0-----------------------]
 A[-----0--0---3------------------------------------------------------]
 E[-------------------------------------------------------------------]

REPEAT 3X
[G] [F] [D]  
It[D]s all the sam[Cn9]e, only the nam[G]es will change
[Cn9]Everyday [G]it seems[G] wer[F]e wast[D]ing away
An[D]other place w[Cn9]here the faces [G]are so cold
[Cn9]Id drive [G]all night ju[G]st [F]to [D]get back home
Chorus:
Im [C]a cowboy, [G]on a steel h[F]orse I ride[D]
I[C]m wan[G]ted
[C]dea[D]d or[F] ali[D]ve
 
 e[--------------------------------------------------------------------]
 B[-----------------10---------10------------8-------8--------6-------6]
 G[----------------------10----------------------9----------------7----]
 D[---------0--------------------------0-----------------0-------------]
 A[--------------------------------------------------------------------]
 E[--------------------------------------------------------------------]
 e[--------------------------------------------------------------------]
 B[----------5-------5-------------1--------1------------0---------0---]
 G[--------------5---------------------2----------------------0--------]
 D[-----0-------------------0----------------------0-------------------]
 A[--------------------------------------------------------------------]
 E[--------------------------------------------------------------------]

2X
S[D]ometimes I sleep, sometimes it[Cn9]s not for day[G]
An[Cn9]d the people I [G]meet always go[G] their separat[F]e ways[D]
So[D]metimes you tell the day
By[Cn9] the bottle that [G]you drink
And[Cn9] times when youre [G]all alone all you d[G]o is think[F] [D]
Chorus
Im [C]a cowboy, [G]on a steel h[F]orse I ride[D]
I[C]m wan[G]ted
[C]dea[D]d or[F] ali[D]ve
I wa[D]lk these streets, a loaded six str[Cn9]ing on my back[G]
I pl[Cn9]ay for keeps,[G] cause I migh[G]t not [F]make it back[D]
I be[D]en everywhere, still Im standi[Cn9]ng tall[G]
Ive s[Cn9]een a million fac[G]es an Ive rocke[G]d them all[F] [D]
Im a [C]cowbo[G]y, on a steel h[F]orse I ride[D]
[C]Im wanted[G]
[C]dead[D] or [F]aliv[D]e
Im a [C]cowbo[G]y, I got the ni[F]ght on my side[D]
[C]Im wanted[G]
[C]dead[D] or [F]aliv[D]e
[C]Want[D]ed d[F]ead [D]or alive
 
 e[--------------------------------------------------------------------]
 B[-----------------10---------10------------8-------8--------6-------6]
 G[----------------------10----------------------9----------------7----]
 D[---------0--------------------------0-----------------0-------------]
 A[--------------------------------------------------------------------]
 E[--------------------------------------------------------------------]
 e[--------------------------------------------------------------------]
 B[----------5-------5-------------1--------1------------0---------0---]
 G[--------------5---------------------2----------------------0--------]
 D[-----0-------------------0----------------------0-------------------]
 A[--------------------------------------------------------------------]
 E[--------------------------------------------------------------------]

2X

Important: The song above is NOT stored on the Chordie server. The original song is hosted at www.guitaretab.com. Chordie works as a search engine and provides on-the-fly formatting. Chordie does not index songs against artists'/composers' will. To remove this song please click here.

Text color:
Chord color:
Chord grids: 
Font size:    
Page size: 

C D F G
Rate #2 of 18 versions

Login - add to songbook

SHARE PAGE  




You need to log in to post comments