Guitar Tabs, Chords and Lyrics
Major upgrade!! After one year development the new version of Chordie is now online! Please give feedback.


Beautiful World  Bon Jovi

BEAUTIFUL WORLD - BON JOVI
INTRO (main riff)
[E]  
 
 E |----------------------------|----------------------------|
 B |-----9-----9-----9-----9----|-----9-----9-----9-----9----|
 G |-----9-----9-----9-----9----|-----9-----9-----9-----9----|
 D |----------------------------|----------------------------|
 A |----------------------------|----------------------------|
 E |----------------------------|----------------------------|

[B]  
 
 ----------------------------|----------------------------|
 -----7-----7-----7-----7----|-----7-----7-----7-----7----|
 -----8-----8-----8-----8----|-----8-----8-----8-----8----|
 ----------------------------|----------------------------|
 ----------------------------|----------------------------|
 ----------------------------|----------------------------|

[C#m]  
 
 ----------------------------|----------------------------|
 -----9-----9-----9-----9----|-----9-----9-----9-----9----|
 -----9-----9-----9-----9----|-----9-----9-----9-----9----|
 ----------------------------|----------------------------|
 ----------------------------|----------------------------|
 ----------------------------|----------------------------|

[A]  
 
 ----------------------------|----------------------------|
 -----10----10----10----10---|-----10----10----10----10---|
 -----9-----9-----9-----9----|-----9-----9-----9-----9----|
 ----------------------------|----------------------------|
 ----------------------------|----------------------------|
 ----------------------------|----------------------------|

VERSE 1
Every [E]day it's the same when they say that it might be the end[B]
In the end when it ends then I'll listen to them[C#m]
You wake up, go to work, go to sleep
Then you [A]do it, you do it, if you're lucky then you do it again[E]
Yeah, we walk through a world that we don't understand[B]
When I look in your eyes I'm just happy I can[C#m]
Yeah, we'll laugh and we'll cry and we'll lose and we'll win[A]
We'll get through it and to prove it yeah we'll do it again[A]
There's glory in the saddes[B]t story
CHORUS
[E]Look at it, just sti[B]cks and bricks
Makes you [C#m]wonder how the piec[A]es fit
[E]Where we're going [B]where we've been
This ain't [C#m]paradise we're liv[A]ing in
It's a [F#m]diamond, it's a dirty blasted [B]pearl
Ah, but [A]ain't [A/G#]it [F#m]a [A]beau[A/G#]ti----[F#m]ful
[E]world
VERSE 2
It's a shame when they say that it's been done and said
They keep digging that grave let them bury their heads
There's a kid with a dream and a sky full of stars
There's another first kiss in the back of some car
Turn a page and write the story
CHORUS
Look at it, just sticks and bricks
Makes you wonder how the pieces fit
Where we're going where we've been
This ain't paradise we're living in
It's a diamond, it's a dirty blasted pearl
Ah, but ain't it a beautiful world
BRIDGE
They're running [A]numbers out of the [B]Spanish coast
Where [E]merry Mary sen[F#m]ds her rose
We get a [A]ladder, there's a cat up in a tree[B]
Ah
The [A]Pretzel man's wearing [B]Gucci glasses
A [E]widow spreads her lo[F#m]-vers ashes
[A]I'll hold on to you, hold on to [B]me, yeah
We'll [A]do it, we'll do it, yeah, we're [F#m]lucky then we'll do it ag[B5]ain[C#5] [D#5] [E5] [F#5] [G#5]
Ah
CHORUS
Look at it, just sticks and bricks
Makes you wonder how the pieces fit
Where we're going, where we've been
This ain't paradise we're living in
It's a diamond, it's a dirty blasted pearl
Ah, but ain't it a beautiful world
Oh, ain't it a beautiful world
Oh, oh ain't it a beautiful world.
OUTRO
 
 --12-12-12-12-12-12-12-12---|
 --10-10-10-9--9--9--9--9----|
 ----------------------------|
 ----------------------------|
 ----------------------------|
 ----------------------------|
 --12-12-12-12-12-12-12-12---|--12-12-12-7--7--7--7--7----|
 --10-10-10-9--9--9--9--9----|--9--9--9--7--7--7--7--7----|
 ----------------------------|----------------------------|
 ----------------------------|----------------------------|
 ----------------------------|----------------------------|
 ----------------------------|----------------------------|
 --7--7--7--7--7--7--7--7----|--12-12-12-12-12-12-12-12---|
 --9--9--9--7--7--7--7--7----|--10-10-10-9--9--9--9--9----|
 ----------------------------|----------------------------|
 ----------------------------|----------------------------|
 ----------------------------|----------------------------|
 ----------------------------|----------------------------|
 --12-12-12-12-12-12-12-12---|--12-12-12-12-12-12-12-12---|
 --10-10-10-9--9--9--9--9----|--12-12-12-10-10-10-10-10---|
 ----------------------------|----------------------------|
 ----------------------------|----------------------------|
 ----------------------------|----------------------------|
 ----------------------------|----------------------------|
 --12-12-12-12-12-12-12-12---|--12-12-12-12-12-12-12-12---|
 --12-12-12-10-10-10-10-10---|--10-10-10-9--9--9--9--9----|
 ----------------------------|----------------------------|
 ----------------------------|----------------------------|
 ----------------------------|----------------------------|
 ----------------------------|----------------------------|
 --12-12-12-12-12-12-12-12---|--12-12-12-7--7--7--7--7----|
 --10-10-10-9--9--9--9--9----|--9--9--9--7--7--7--7--7----|
 ----------------------------|----------------------------|
 ----------------------------|----------------------------|
 ----------------------------|----------------------------|
 ----------------------------|----------------------------|
 --7--7--7--7--7--7--7--7----|--12-12-12-12-12-12-12-12---|
 --9--9--9--7--7--7--7--7----|--10-10-10-9--9--9--9--9----|
 ----------------------------|----------------------------|
 ----------------------------|----------------------------|
 ----------------------------|----------------------------|
 ----------------------------|----------------------------|
 --12-12-12-12-12-12-12-12---|--12-12-12-12-12-12-12-12---|
 --10-10-10-9--9--9--9--9----|--12-12-12-10-10-10-9--9----|
 ----------------------------|----------------------------|
 ----------------------------|----------------------------|
 ----------------------------|----------------------------|
 ----------------------------|----------------------------|
 --12-12-12-12-12-12---------|--12---||
 --9--10-10-10-9--9----------|--12---||
 --------------------11-9----|-------||
 ----------------------------|-------||
 ----------------------------|-------||
 ----------------------------|-------||


Important: The song above is NOT stored on the Chordie server. The original song is hosted at www.guitaretab.com. Chordie works as a search engine and provides on-the-fly formatting. Chordie does not index songs against artists'/composers' will. To remove this song please click here.

Text color:
Chord color:
Chord grids: 
Font size:    
Page size: 

A A/G# B B5 C#5 C#m D#5 E E5 F#5 F#m G#5
Rate #1 of 4 versions

Login - add to songbook

SHARE PAGE  



You need to log in to post comments