Guitar Tabs, Chords and Lyrics
Major upgrade!! After one year development the new version of Chordie is now online! Please give feedback.


Sort It Out  Caesars

Intro/outro sequence:
[Bm] [D] [Asus4] [G6]  
 
 |------------0---|--------------0-|------------0---|------------0---|
 |------3-------3-|------3-----3---|------3-------3-|------3-------3-|
 |----4-----4-----|----2-----2-----|----2-----2-----|----0-----0-----|
 |--4-----4-------|--4-----4-------|--2-----2-------|--2-----2-------|
 |2---------------|5---------------|0---------------|----------------|
 |----------------|----------------|----------------|3---------------|
 |------------0---|--------------0-|------------0---|------------0---|
 |------3-------3-|------3-----3---|------3-------3-|------3-------3-|
 |----4-----4-----|----2-----2-----|----2-----2-----|----0-----0-----|
 |--4-----4-------|--4-----4-------|--2-----2-------|--2-------------|
 |2---------------|5---------------|0---------------|----------------|
 |----------------|----------------|----------------|3-------0-------|

Verse sequence:
[B5] [D5] [A5] [G5]  
 
 |----------------|----------------|----------------|----------------|
 |----------------|----------------|----------------|----------------|
 |--------------4-|--------------7-|----------------|----------------|
 |----4---2-4-----|----7---5-7-----|--------------7-|----------------|
 |2-2---2-----2---|5-5---5-----5---|----7---5-7-----|----5---3-5---5-|
 |----------------|----------------|5-5---5-----5---|3-3---3-----3---|

[B5]I wanna smoke [D5]cracke
[A5]?cause you?re never coming [G5]back
[B5]I wanna shoot [D5]speedballs
[A5]Band my head a[G5]gainst the wall
[B5]I wanna sniff [D5]glue
[A5]?cause I can?t get [G5]over you
[G] [A]  
 
 |3-3-3-3-5-5-5-5-|
 |3-3-3-3-5-5-5-5-|
 |4-4-4-4-6-6-6-6-|
 |5-5-5-5-7-7-7-7-|
 |5-5-5-5-7-7-7-7-|
 |3-3-3-3-5-5-5-5-|

Chorus sequence:
[B5] [G5] [F#5]  
 
 |----------------|----------------|----------------|----------------|
 |----------------|----------------|----------------|----------------|
 |4-4-4-4-4-4-4-4-|----------------|----------------|----------------|
 |4-4-4-4-4-4-4-4-|5-5-5-5-5-5-5-5-|4-4-4-4-4-4-4-4-|4-4-4-4-4-4-4-4-|
 |2-2-2-2-2-2-2-2-|5-5-5-5-5-5-5-5-|4-4-4-4-4-4-4-4-|4-4-4-4-4-4-4-4-|
 |----------------|3-3-3-3-3-3-3-3-|2-2-2-2-2-2-2-2-|2-2-2-2-2-2-2-2-|

[B5]How?m I [G5]gonna [F#5]sort it out?
[B5]How?m I [G5]gonna [F#5]sort it out?

Important: The song above is NOT stored on the Chordie server. The original song is hosted at www.guitaretab.com. Chordie works as a search engine and provides on-the-fly formatting. Chordie does not index songs against artists'/composers' will. To remove this song please click here.

Text color:
Chord color:
Chord grids: 
Font size:    
Page size: 

A A5 Asus4 B5 Bm D D5 F#5 G G5 G6
Rate #1 of 5 versions

Jango Player

Login - add to songbook

SHARE PAGE  



You need to log in to post comments