Guitar Tabs, Chords and Lyrics
Server problems seems to be fixed. Chordie has been experiencing problems with songs disappearing. These issues now seems to be fixed, but still verifying the fix. If you find anything strange, please email admin@chordie.com.


What Goes Around Comes Around  Catch 22

Catch 22 - What Goes Around Comes Around
i couldn't find a good tab for this song, so i made my own. should be pretty accurate.
let me know: hiwwe@gmx.de
v = upstroke; + = no mute
Intro (clean; actually acoustic)
v
 
 e|-6--2-------------------1--|
 B|-6--2-------------------1--|
 G|-6--3---------2-3-2-----2--|
 D|-8--4-------3-------3---3--|
 A|-8--4-----3-------------3--|
 E|-6--2---1---------------1--|

Intro II (clean and very fast ska upstrokes)
[a#] [G#] [F#] [G#] [a#] [G#] [F#] [G#] [F#] [G#] [a#] [F#] [G#] [a#] [F#] [G#]  
 
 E|-6--4--2--4--6--4--2--4--2--4--6----2--4--6----2--4-|
 B|-6--4--2--4--6--4--2--4--2--4--6----2--4--6----2--4-|
 G|-6--5--3--5--6--5--3--4--3--5--6----3--5--6----3--5-|
 D|-8--6--4--6--8--6--4--6--4--6--8----4--6--8----4--6-|
 A|-8--6--4--6--8--6--4--6--4--6--8----4--6--8----4--6-|
 E|-6--4--2--4--6--4--2--4--2--4--6----2--4--6----2--4-|

Pre Verse (with[+] distortion)[+]
 
 e|-------------------|
 B|-------------------|
 G|-------------------|
 D|--8--6--4--6--8----|
 A|--8--6--4--6--8----|
 E|--6--4--2--4--6----|

Verse (clean and very fast ska upstrokes)
[a#] [G#] [a#] [F#] [G#a#] [G#] [F#] [G#] [a#] [G#] [a#] [F#] [G#a#] [G#] [F#]  
 
 e|-6--4--6--2-(4)6--4--2--4- -6--4--6--2-(4)6--4--2----|
 B|-6--4--6--2-(4)6--4--2--4- -6--4--6--2-(4)6--4--2----|
 G|-6--5--6--3-(5)6--5--3--5- -6--5--6--3-(5)6--5--3----|
 D|-8--6--8--4-(6)8--6--4--6- -8--6--8--4-(6)8--6--4--6-|
 A|-8--6--8--4-(6)8--6--4--6- -8--6--8--4-(6)8--6--4--6-|
 E|-6--4--6--2-(4)6--4--2--4- -6--4--6--2-(4)6--4--2--4-|

|2nd verse varies| (* distorted)
Pre Chorus (with distortion)
 
 e|---------------------------------------------------------|
 B|---------------------------------------------------------|
 G|-6----3-------6-----------6-----3--------6------6--------|
 D|-6-4--3--6----6--4---6----6--4--3--6-----6---6--6----6---|
 A|-4-4--1--6----4--4---6----4--4--1--6-----4---6--4----6---|
 E|---2-----4-------2---4-------2-----4---------4-------4---|

Chorus (with distortion)
 
 e|--------------------------------------------------|
 B|--------------------------------------------------|
 G|--------6-----------6-----------6--3--------6---5-|
 D|--4--6--6---6-4--6--6---6-4--6--6--3-?4--6--6---5-|
 A|--4--6--4---6-4--6--4---6-4--6--4--1--4--6--4---3-|
 E|--2--4------4-2--4------4-2--4--------2--4--------|

Slow part at the end (clean) (?Next thing I know??) listen for exact timing
 
 e|------2--/4---4----------2--/4---4---4-4-4------2--/4---4--6-----|
 B|------2--/4---6----------2--/4---6---6-7-6------2--/4---6--6-----|
 G|------3--/5---6----------3--/5---6---6-6-6------3--/5---6--6-----|
 D|------4--/6---6----------4--/6---6---6-6-6------4--/6---6--8-----|
 A|------4--/6---4----------4--/4---4---4-4-4------4--/6---4--8-----|
 E|--2-2-2--/4----------2-2-2--/4--------------2-2-2--/4------6-----|

(pm:^ ^ ^ ^) * (let ring)
Ending (with distortion)
 
 e|-----------------------|
 B|-----------------------|
 G|-----------------------|
 D|--4--6--4--6--4--6--8--|
 A|--4--6--4--6--4--4--6--|
 E|--2--4--2--4--2--4--6--|

* (let ring)

Important: The song above is NOT stored on the Chordie server. The original song is hosted at www.guitaretab.com. Chordie works as a search engine and provides on-the-fly formatting. Chordie does not index songs against artists'/composers' will. To remove this song please click here.

Text color:
Chord color:
Chord grids: 
Font size:    
Page size: 

F# G#
Rate #2 of 3 versions

Login - add to songbook

SHARE PAGE  




You need to log in to post comments