Guitar Tabs, Chords and Lyrics
Major upgrade!! After one year development the new version of Chordie is now online! Please give feedback.


An Evening With El Diablo  Chevelle

AN EVENING WITH EL DIABLO
As recorded by Chevelle
(From the 2002 Album WONDER WHAT'S NEXT)
Words by Pete Loeffler
Music by Chevelle
Transcribed by thedarkwin.
x 7 9[E] 9 x x x 6 [D#]8 8 x x 4 4 [F#5]4 x x x
Gtr I (B F# B E G# C#) - 'Pete Distorted'
Gtr II (B F# B E G# C#) - 'Pete Clean'
Intro Verse
Moderate Rock Q=94
[4/4] Gtr I
Wx4 Wx16
 
 |------------||---------||
 |------------||---------||
 |------------||---------||
 |------------||---------||
 |------------||---------||
 |------------||---------||

Post-Verse
[F#5] [G5D5]PM| [F#5] PM[D5]|
Q E S S S S S S S e. Q E S S S S S S S e.
 
 ||------------------------|------------------------||
 ||o-----------------------|-----------------------o||
 ||------------------------|------------------------||
 ||--4--4-4-4-4-4-4-4------|-4--4-4-4-4-4-4-4-------||
 ||o-4--4-4-4-4-4-4-4-5-0--|-4--4-4-4-4-4-4-4-5-0--o||
 ||--4--4-4-4-4-4-4-4-5-0--|-4--4-4-4-4-4-4-4-5-0---||

Verse
[E]Gtr II
S S S S S S S S S S S S S S S S S S S S S S S S S S S S S S S S
 
 ||----------------------------------|----------------------------------|
 ||o---------------------------------|----------------------------------|
 ||--9-9-9-9-9-9-9-9-9-9-9-9-9-9-9-9-|-9-9-9-9-9-9-9-9-9-9-9-9-9-9-9-9--|
 ||----------------------------------|----------------------------------|
 ||o-7-7-7-7-7-7-7-7-7-7-7-7-7-7-7-7-|-7-7-7-7-7-7-7-7-7-7-7-7-7-7-7-7--|
 ||----------------------------------|----------------------------------|

[D#]S S S S S S S S S S S S S S S S S S S S S S S S S S S S S S S S 4x
 
 |---------------------------------|----------------------------------||
 |---------------------------------|---------------------------------o||
 |-8-8-8-8-8-8-8-8-8-8-8-8-8-8-8-8-|-8-8-8-8-8-8-8-8-8-8-8-8-8-8-8-8--||
 |---------------------------------|----------------------------------||
 |-6-6-6-6-6-6-6-6-6-6-6-6-6-6-6-6-|-6-6-6-6-6-6-6-6-6-6-6-6-6-6-6-6-o||
 |---------------------------------|----------------------------------||

Post-Verse
[F#5]Gtr I[D5] [F#5] [D5]
PM| PM|
Q E S S S S S S S e. Q E S S S S S S S e. 4x
 
 ||------------------------|------------------------||
 ||o-----------------------|-----------------------o||
 ||------------------------|------------------------||
 ||--4--4-4-4-4-4-4-4------|-4--4-4-4-4-4-4-4-------||
 ||o-4--4-4-4-4-4-4-4-5-0--|-4--4-4-4-4-4-4-4-5-0--o||
 ||--4--4-4-4-4-4-4-4-5-0--|-4--4-4-4-4-4-4-4-5-0---||

Chorus
[E]  
Gtr I
S S S S S S S S S S S S S S S S S S S S S S S S S S S S S S S S
 
 ||----------------------------------|----------------------------------|
 ||o---------------------------------|----------------------------------|
 ||--9-9-9-9-9-9-9-9-9-9-9-9-9-9-9-9-|-9-9-9-9-9-9-9-9-9-9-9-9-9-9-9-9--|
 ||--x-x-x-x-x-x-x-x-x-x-x-x-x-x-x-x-|-x-x-x-x-x-x-x-x-x-x-x-x-x-x-x-x--|
 ||o-7-7-7-7-7-7-7-7-7-7-7-7-7-7-7-7-|-7-7-7-7-7-7-7-7-7-7-7-7-7-7-7-7--|
 ||----------------------------------|----------------------------------|

[D#]  
S S S S S S S S S S S S S S S S S S S S S S S S S S S S S S S S
 
 |---------------------------------|----------------------------------||
 |---------------------------------|---------------------------------o||
 |-8-8-8-8-8-8-8-8-8-8-8-8-8-8-8-8-|-8-8-8-8-8-8-8-8-8-8-8-8-8-8-8-8--||
 |-x-x-x-x-x-x-x-x-x-x-x-x-x-x-x-x-|-x-x-x-x-x-x-x-x-x-x-x-x-x-x-x-x--||
 |-6-6-6-6-6-6-6-6-6-6-6-6-6-6-6-6-|-6-6-6-6-6-6-6-6-6-6-6-6-6-6-6-6-o||
 |---------------------------------|----------------------------------||

Verse
[F#]Gtr I[E] [F#] [E]
E S S S E E S S S S a S S S E S S S E E S S S S a S S S
 
 ||------------------------------|-----------------------------|
 ||o-----------------------------|-----------------------------|
 ||------------------------------|-----------------------------|
 ||------------------------------|-----------------------------|
 ||o---------------------7-7-7-7-|---------------------7-7-7-7-|
 ||--4-4-4-4-4-4-4-4-4-4---------|-4-4-4-4-4-4-4-4-4-4---------|

[F#]E S S S E E S S S S [D#]a S S S [F#]E S S S E E S S S S [D#]a S S S
 
 |-----------------------------|------------------------------||
 |-----------------------------|-----------------------------o||
 |-----------------------------|------------------------------||
 |-----------------------------|------------------------------||
 |---------------------6-6-6-6-|---------------------6-6-6-6-o||
 |-4-4-4-4-4-4-4-4-4-4---------|-4-4-4-4-4-4-4-4-4-4----------||

[F#]Gtrs I, III[E] [F#] [E]
E S S S E E S S S S a S S S E S S S E E S S S S a S S S
 
 ||------------------------------|-----------------------------|
 ||o-----------------------------|-----------------------------|
 ||------------------------------|-----------------------------|
 ||------------------------------|-----------------------------|
 ||o---------------------7-7-7-7-|---------------------7-7-7-7-|
 ||--4-4-4-4-4-4-4-4-4-4---------|-4-4-4-4-4-4-4-4-4-4---------|

[F#]E S S S E E S S S S [D#]a S S S [F#]E S S S E E S S S S [D#]a S S S
 
 |-----------------------------|------------------------------||
 |-----------------------------|-----------------------------o||
 |-----------------------------|------------------------------||
 |-----------------------------|------------------------------||
 |---------------------6-6-6-6-|---------------------6-6-6-6-o||
 |-4-4-4-4-4-4-4-4-4-4---------|-4-4-4-4-4-4-4-4-4-4----------||

Post-Verse
[F#5]Gtr I[D5] [F#5] [D5]
PM| PM|
Q E S S S S S S S e. Q E S S S S S S S e. 4x
 
 ||------------------------|------------------------||
 ||o-----------------------|-----------------------o||
 ||------------------------|------------------------||
 ||--4--4-4-4-4-4-4-4------|-4--4-4-4-4-4-4-4-------||
 ||o-4--4-4-4-4-4-4-4-5-0--|-4--4-4-4-4-4-4-4-5-0--o||
 ||--4--4-4-4-4-4-4-4-5-0--|-4--4-4-4-4-4-4-4-5-0---||

Guitar Break
Wx4
 
 |--------||
 |--------||
 |--------||
 |--------||
 |--------||
 |--------||

Chorus
[E]S S S S S S S S S S S S S S S S S S S S S S S S S S S S S S S S
 
 ||----------------------------------|----------------------------------|
 ||o---------------------------------|----------------------------------|
 ||--9-9-9-9-9-9-9-9-9-9-9-9-9-9-9-9-|-9-9-9-9-9-9-9-9-9-9-9-9-9-9-9-9--|
 ||--x-x-x-x-x-x-x-x-x-x-x-x-x-x-x-x-|-x-x-x-x-x-x-x-x-x-x-x-x-x-x-x-x--|
 ||o-7-7-7-7-7-7-7-7-7-7-7-7-7-7-7-7-|-7-7-7-7-7-7-7-7-7-7-7-7-7-7-7-7--|
 ||----------------------------------|----------------------------------|

[D#]S S S S S S S S S S S S S S S S S S S S S S S S S S S S S S S S 4x
 
 |---------------------------------|----------------------------------||
 |---------------------------------|---------------------------------o||
 |-8-8-8-8-8-8-8-8-8-8-8-8-8-8-8-8-|-8-8-8-8-8-8-8-8-8-8-8-8-8-8-8-8--||
 |-x-x-x-x-x-x-x-x-x-x-x-x-x-x-x-x-|-x-x-x-x-x-x-x-x-x-x-x-x-x-x-x-x--||
 |-6-6-6-6-6-6-6-6-6-6-6-6-6-6-6-6-|-6-6-6-6-6-6-6-6-6-6-6-6-6-6-6-6-o||
 |---------------------------------|----------------------------------||

[E]S S S S S S S S S S S S S S S S S S S S S S S S S S S S S S S S
 
 ||--------------------------------------|------------------------------------|
 ||o-------------------------------------|------------------------------------|
 ||--9-9-9-9--9--9-9-9--9--9-9-9-9-9-9-9-|--9--9-9-9-9-9-9-9-9-9-9-9-9-9-9-9--|
 ||--x-x-x-x--x--x-x-x--x--x-x-x-x-x-x-x-|--x--x-x-x-x-x-x-x-x-x-x-x-x-x-x-x--|
 ||o-7-7-7-7--7--7-7-7--7--7-7-7-7-7-7-7-|--7--7-7-7-7-7-7-7-7-7-7-7-7-7-7-7--|
 ||--------------------------------------|------------------------------------|

|
| Gtr II
| Q +E E +H +W
 
 ||--------------------------------------|------------------------------------|
 ||o-------------------------------------|------------------------------------|
 ||--------------------------------------|------------------------------------|
 ||--------------------------------------|------------------------------------|
 ||o-7-------(7)---7---(7)---------------|-(7)--------------------------------|
 ||--------------------------------------|------------------------------------|

[D#]S S S S S S S S S S S S S S S S S S S S S S S S S S S S S S S S 3x
 
 |-------------------------------------|------------------------------------||
 |-------------------------------------|-----------------------------------o||
 |-8-8-8-8--8--8-8-8--8--8-8-8-8-8-8-8-|--8--8-8-8-8-8-8-8-8-8-8-8-8-8-8-8--||
 |-x-x-x-x--x--x-x-x--x--x-x-x-x-x-x-x-|--x--x-x-x-x-x-x-x-x-x-x-x-x-x-x-x--||
 |-6-6-6-6--6--6-6-6--6--6-6-6-6-6-6-6-|--6--6-6-6-6-6-6-6-6-6-6-6-6-6-6-6-o||
 |-------------------------------------|------------------------------------||

|
| Q +E E +H +W 3x
 
 |-------------------------------------|------------------------------------||
 |-------------------------------------|-----------------------------------o||
 |-------------------------------------|------------------------------------||
 |-------------------------------------|------------------------------------||
 |-6-------(6)---6---(6)---------------|-(6)-------------------------------o||
 |-------------------------------------|------------------------------------||

Outro
[E]  
S S S S S S S S S S S S S S S S S S S S S S S S S S S S S S S S
 
 ||------------------------------------|------------------------------------|
 ||o-----------------------------------|------------------------------------|
 ||--9--9-9-9-9-9-9-9-9-9-9--9-9-9-9-9-|--9--9-9-9-9-9-9-9-9-9-9-9-9-9-9-9--|
 ||--x--x-x-x-x-x-x-x-x-x-x--x-x-x-x-x-|--x--x-x-x-x-x-x-x-x-x-x-x-x-x-x-x--|
 ||o-7--7-7-7-7-7-7-7-7-7-7--7-7-7-7-7-|--7--7-7-7-7-7-7-7-7-7-7-7-7-7-7-7--|
 ||------------------------------------|------------------------------------|

|
| Q. Q Q. +W
 
 ||---------------0--------------------|------------------------------------|
 ||o----------------------0------------|-(0)--------------------------------|
 ||------------------------------------|------------------------------------|
 ||------------------------------------|------------------------------------|
 ||o-7---------------------------------|------------------------------------|
 ||------------------------------------|------------------------------------|

1.,2.,3.
[D#]  
S S S S S S S S S S S S S S S S S S S S S S S S S S S S S S S S 4x
 
 |-------------------------------------|------------------------------------||
 |-------------------------------------|-----------------------------------o||
 |-8-8-8-8--8--8-8-8--8--8-8-8-8-8-8-8-|--8--8-8-8-8-8-8-8-8-8-8-8-8-8-8-8--||
 |-x-x-x-x--x--x-x-x--x--x-x-x-x-x-x-x-|--x--x-x-x-x-x-x-x-x-x-x-x-x-x-x-x--||
 |-6-6-6-6--6--6-6-6--6--6-6-6-6-6-6-6-|--6--6-6-6-6-6-6-6-6-6-6-6-6-6-6-6-o||
 |-------------------------------------|------------------------------------||

|
| Q +E E +H +W 4x
 
 |-------------------------------------|------------------------------------||
 |-------------------------------------|-----------------------------------o||
 |-------------------------------------|------------------------------------||
 |-------------------------------------|------------------------------------||
 |-6-------(6)---6---(6)---------------|-(6)-------------------------------o||
 |-------------------------------------|------------------------------------||

4.
[D#]  
S S S S S S S S S S S S S S S S S S S S S S S S S S S S S S S S
 
 |---------------------------------|---------------------------------|
 |---------------------------------|---------------------------------|
 |-8-8-8-8-8-8-8-8-8-8-8-8-8-8-8-8-|-8-8-8-8-8-8-8-8-8-8-8-8-8-8-8-8-|
 |-x-x-x-x-x-x-x-x-x-x-x-x-x-x-x-x-|-x-x-x-x-x-x-x-x-x-x-x-x-x-x-x-x-|
 |-6-6-6-6-6-6-6-6-6-6-6-6-6-6-6-6-|-6-6-6-6-6-6-6-6-6-6-6-6-6-6-6-6-|
 |---------------------------------|---------------------------------|

[E]  
S S S S S S S S S S S S S S S S S S S S S S S S S S S S S S S S
 
 ||----------------------------------|----------------------------------|
 ||o---------------------------------|----------------------------------|
 ||--9-9-9-9-9-9-9-9-9-9-9-9-9-9-9-9-|-9-9-9-9-9-9-9-9-9-9-9-9-9-9-9-9--|
 ||--x-x-x-x-x-x-x-x-x-x-x-x-x-x-x-x-|-x-x-x-x-x-x-x-x-x-x-x-x-x-x-x-x--|
 ||o-7-7-7-7-7-7-7-7-7-7-7-7-7-7-7-7-|-7-7-7-7-7-7-7-7-7-7-7-7-7-7-7-7--|
 ||----------------------------------|----------------------------------|

[D#]  
S S S S S S S S S S S S S S S S
 
 |---------------------------------|
 |---------------------------------|
 |-8-8-8-8-8-8-8-8-8-8-8-8-8-8-8-8-|
 |-x-x-x-x-x-x-x-x-x-x-x-x-x-x-x-x-|
 |-6-6-6-6-6-6-6-6-6-6-6-6-6-6-6-6-|
 |---------------------------------|

S S S S S S S S S S S S S S S S [F#5]S S E Q H
| | | | | | | | | | | | | | | | | |
x x x x x x x x x x x x x x x x / /
S S S S S S S S S S S S S S S S S S E Q H
 
 |----------------------------------||---------------*|
 |---------------------------------o||---------------*|
 |-8-8-8-8-8-8-8-8-8-8-8-8-8-8-8-8--||---------------*|
 |-x-x-x-x-x-x-x-x-x-x-x-x-x-x-x-x--||-4-4-----------*|
 |-6-6-6-6-6-6-6-6-6-6-6-6-6-6-6-6-o||-4-4-----------*|
 |----------------------------------||-4-4-----------*|

Duration Legend
 
 ---------------
 W - whole; H - half; Q - quarter; E - 8th; S - 16th; T - 32nd; X - 64th; a - acciaccatura

+ - note tied to previous; . - note dotted; .. - note double dotted
Uncapitalized letters represent notes that are staccato (1/2 duration)
Irregular groupings are notated above the duration line
Duration letters will always appear directly above the note/fret number it represents the
duration for. Duration letters with no fret number below them represent rests. Multi-
bar rests are notated in the form Wxn, where n is the number of bars to rest for. Low
melody durations appear below the staff
Tablature Legend
 
 ----------------

h - hammer-on
p - pull-off
b - bend
pb - pre-bend
r - bend release (if no number after the r, then release immediately)
/\ - slide into or out of (from/to "nowhere")
s - legato slide
S - shift slide
- natural harmonic
(n) - artificial harmonic
n(n) - tapped harmonic
~ - vibrato
tr - trill
T - tap
TP - trem. picking
PM - palm muting
\n/ - tremolo bar dip; n = amount to dip
\n - tremolo bar down
n/ - tremolo bar up
/n\ - tremolo bar inverted dip
= - hold bend; also acts as connecting device for hammers/pulls
- volume swell (louder/softer)
x - on rhythm slash represents muted slash
o - on rhythm slash represents single note slash
Misc Legend
 
 -----------

| - bar
|| - double bar
||o - repeat start
o|| - repeat end
*| - double bar (ending)
: - bar (freetime)
$ - Segno
& - Coda
Tempo markers - = BPM(8/16=s8/s16), where s8 = swing 8ths, s16 = swing 16ths
***************************************************************************************
* Generated using Power Tab Editor by Brad Larsen - http://powertab.guitarnetwork.org *

Important: The song above is NOT stored on the Chordie server. The original song is hosted at www.guitaretab.com. Chordie works as a search engine and provides on-the-fly formatting. Chordie does not index songs against artists'/composers' will. To remove this song please click here.

Text color:
Chord color:
Chord grids: 
Font size:    
Page size: 

D# D5 E F# F#5
Rate #1 of 2 versions

Login - add to songbook

SHARE PAGE  




You need to log in to post comments