Guitar Tabs, Chords and Lyrics
Login is temporarily disabled for some users. Do not panic. Will be back in an hour or two. DO NOT REREGISTER!!


Never Let You Go  Colbie Caillat

 
 -------------------------------------------------------------------------------

NEVER LET YOU GO - Colbie Caillat
 
 -------------------------------------------------------------------------------

Tabbed by: Krista
Email: leavethepieces@gmail.com
Tuning: Capo on 2nd
Chords:
G D/F# Em7 C D* D Em Am Bm
 
 e|-3---3---3----0---0---2---0---0---2-|
 B|-3---3---3----1---3---3---0---1---3-|
 G|-0---2---0----0---0---2---0---2---4-|
 D|-0---0---2----2---4---0---2---2---4-|
 A|-2---0---2----3---4---x---2---0---2-|
 E|-3---2---0----x---x---x---0---x---2-|

I'm not the best at tabbing picking parts, but I tried to get it all:
Intro: (and background of choruses)
(G) (D/F#) (Em7) ? (D)
 
 e|-----------------|-----------------|-----------------|-----------------|
 B|-----3-----3---3-|-----3-----3---3-|-----1-----1---1-|-----3-----3---3-|
 G|---0-----0-------|---0-----0-------|---0-----0-------|---2-----2-------|
 D|-5-----5-----5---|-4-----4-----4---|-2-----2-----2---|-0-----0-----0---|
 A|-----------------|-----------------|-----------------|-----------------|
 E|-----------------|-----------------|-----------------|-----------------|

(play each section twice)
Verses:
(C) (D*) (Em) (Am)
 
 e|---------------------------------|---------------------------------|
 B|---------------------------------|---------------------------------|
 G|-----0-----0---0-----0-------0---|-----0-----2---2-----2-----2-----|
 D|---2-----2---------4-------5-----|---2-----2---------2-----2-------|
 A|-3-----3-----3---5-----5-7-----7-|-0-----0-----0---0-----0-----2-2-|
 E|---------------------------------|---------------------------------|

(for each verse play the first section 3 times, then play the 2nd)
[G] [D/F#] [Em7] [D]  
C D* Em
If we find that our vision is blinded
C D* Em
We should slow down and maybe we will find it
C D* Em Am
Every heart just needs a little time to grow
C D* Em
If we go through a little bit of hard times
C D* Em
You should know that to fix it it'll take time
C D* Em Am
Baby hold on before we start to lose control
What can I [Em]say, what can I [Bm]do
How do we [Am]change, I'm not gonna [D]lose you
[G] If the world stops turning
[D/F#] If the sun stops burning
[Em7] When the cold winds starts to blow
I wanna [D]let you know, oh I'll never let you go
[G] When you feel like breaking
[D/F#] When your heart keeps waiting
[Em7] When the tears begin to flow
I wanna [D]let you know, oh I'll never let you go
C D* Em
Don't hide those feelings inside 'cause
C D* Em
If they're tucked back they could turn your heart black
C D* Am
How long will it take for us to let this go
We you just [Em]wait, will you let [Bm]loose
Will you [Am]know, my feelings are [D]true
[G] If the world stops turning
[D/F#] If the sun stops burning
[Em7] When the cold winds starts to blow
I wanna [D]let you know, oh I'll never let you go
[G] When you feel like breaking
[D/F#] When your heart keeps waiting
[Em7] When the tears begin to flow
I wanna [D]let you know, oh I'll never let you go
[Am] Baby I am standing [Bm]here
Trying to get past the [C]fear
Hoping you won't let me [G]go
Oh, I wanna let you know
[G] If the world stops turning
[D/F#] If the sun stops burning
[Em7] When the cold winds starts to blow
I wanna [D]let you know, oh I'll never let you go
[G] When you feel like breaking
[D/F#] When your heart keeps waiting
[Em7] When the tears begin to flow
I wanna [D]let you know, oh I'll never let you go
[G] Oh, I'll never [D/F#]let you go
I'll never let you [Em7]go
Oh, I wanna [D]let you know, I'll never let you go
[G] N[D/F#]o, I'll never let you [Em7]go
Oh, I wanna [D]let you know, I'll never let you go
[G] N[D/F#]o, I'll never let you [Em7]go
I wanna [D]let you know, I'll never let you go
[G] [D/F#] [Em7] I wanna [D]let you know, I'll never let you go[G]
===============================================================================

Important: The song above is NOT stored on the Chordie server. The original song is hosted at www.guitaretab.com. Chordie works as a search engine and provides on-the-fly formatting. Chordie does not index songs against artists'/composers' will. To remove this song please click here.

Text color:
Chord color:
Chord grids: 
Font size:    
Page size: 

Am Bm C D D/F# Em Em7 G
Rate #1 of 2 versions

Login - add to songbook

SHARE PAGE  




You need to log in to post comments