Guitar Tabs, Chords and Lyrics
Login is temporarily disabled for some users. Do not panic. Will be back in an hour or two. DO NOT REREGISTER!!


Begin Again  Colbie Caillat

 
 -------------------------------------------------------------------------------

BEGIN AGAIN - Colbie Caillat
 
 -------------------------------------------------------------------------------

Tabbed by: Krista
Email: leavethepieces@gmail.com
Tuning: Capo on 4th
Chords:
[G] [D/F#] [Em7] [Cadd9] [Em] [Am] [C] [D] [Dsus2]  
 
 e|-3---3---3---3----0---0---0---2---0-|
 B|-3---3---3---3----0---1---1---3---3-|
 G|-0---2---0---0----0---2---0---2---2-|
 D|-0---0---2---2----2---2---2---0---0-|
 A|-2---0---2---3----2---0---3---x---x-|
 E|-3---2---0---x----0---x---x---x---x-|

Feel free to substitue C and Cadd9, Em and Em7, D and D/F#, etc.
It's really a matter of personal preference.
If you can, play D/F# 232002 (use your thumb on the low E string)
Verses:
[(G)] [(D/F#)] [(Em7)] [(Cadd9)]  
 
 e|-----------------------------------------------------------------|
 B|-----3-----3---3-----3-----3---------3-----3---3-----3-----3-----|
 G|---0-----0---------0-----0-----0---0-----0---------0-----0-----0-|
 D|-5-----5-----5---4-----4-----4---2-----2-----2-------------------|
 A|-------------------------------------------------3-----3-----3---|
 E|-----------------------------------------------------------------|

[(Em7)] [(D/F#)] [(Cadd9)] [(Cadd9)]  
 
 e|-----------------------------------------------------------------|
 B|-----3-----3---3-----3-----3---3-----3-----3---3-----3-----3---3-|
 G|---0-----0---------0-----0---------0-----0---------0-----0-------|
 D|-2-----2-----2---4-----4-----4-----------------------------------|
 A|---------------------------------3-----3-----3---3-----3-----3---|
 E|-----------------------------------------------------------------|

(Dsus2) (end of second verse)
 
 e|-----------------0-|
 B|-----3-----3---3-3-|
 G|---2-----2-------2-|
 D|-0-----0-----0---0-|
 A|-----------------x-|
 E|-----------------x-|

[G] I [D/F#]can't get you out of the [Em7]sunlight
I [Cadd9]can't get you out of the [G]rain
I [D/F#]can't get you back to that [Em7]one time
Cause [Cadd9]you and me are still recover[Em7]ing
So let's just [D/F#]try to cool it [Cadd9]down
The [Cadd9]fighting is feeding the [Em7]flames
D/F# Cadd9 (strum)
So let's try to slow it down
We crash when we r[Dsus2]ace
Oh [G]this is not the way that it should [D]end
It's the way it should be[Em7]gin
It's the way it should be[Cadd9]gin again
No[G], I never wanna fall a[D]part
Never wanna break your [Em7]heart
Never wanna let you [Cadd9]break my own
Y[G]es, I know we said a lot of [D]things
That we probably didn't [Em7]mean
But it's not too late to [Cadd9]take them back
S[G]o, before you say you're gonna [D]go
I should probably let you [Em7]know
That I never knew [Cadd9]what I had
[G] I never knew [D]what I h[Em7]ad[Cadd9]
[G] See [D/F#]I look for you in the [Em7]morning
'Cause [Cadd9]that's when my mind always[G] goes
And [D/F#]I can't wait to get to the [Em7]evening
'Cause [Cadd9]that's when I want you the [Em7]most
So let's just [D/F#]try to cool it [Cadd9]down
The [Cadd9]fighting is feeding the [Em7]flames
So let's [D/F#]try to slow it [Cadd9]down
We crash when we r[Dsus2]ace
Oh [G]this is not the way that it should [D]end
It's the way it should be[Em7]gin
It's the way it should be[Cadd9]gin again
No[G], I never wanna fall a[D]part
Never wanna break your [Em7]heart
Never wanna let you [Cadd9]break my own
Y[G]es, I know we said a lot of [D]things
That we probably didn't [Em7]mean
But it's not too late to [Cadd9]take them back
S[G]o, before you say you're gonna [D]go
I should probably let you [Em7]know
That I never knew [Cadd9]what I had
[G] I never knew [D]what I h[Em7]ad[Cadd9]
[Em] But I know it [D]now
[C] I wish I would've known be[Em]fore how g[D]ood we w[C]ere
[Am] Or is it too late[Em] to come b[D]ack or is it really over
[Am] Cause [Em]if it's really ov[D]er
Then [G]this is not the way that it should [D]end
It's the way it should be[Em7]gin
It's the way it should be[Cadd9]gin again
No[G], I never wanna fall a[D]part
Never wanna break your [Em7]heart
Never wanna let you [Cadd9]break my own
Y[G]es, I know we said a lot of [D]things
That we probably didn't [Em7]mean
But it's not too late to [Cadd9]take them back
S[G]o, before you say you're gonna [D]go
I should probably let you [Em7]know
That I never knew [Cadd9]what I had
[G] I never knew [D]what I had
[Em7] I never knew [Cadd9]what I had
[G] I never knew [D]what I had
[Em7] I never knew [Cadd9]what I had
[G] [D]I never [Em7]knew,[Cadd9] but I'm telling y[G]ou
[D] I never [Em7]knew[Cadd9]
G D Em7 Cadd9 x2 G
===============================================================================

Important: The song above is NOT stored on the Chordie server. The original song is hosted at www.guitaretab.com. Chordie works as a search engine and provides on-the-fly formatting. Chordie does not index songs against artists'/composers' will. To remove this song please click here.

Text color:
Chord color:
Chord grids: 
Font size:    
Page size: 

Am C Cadd9 D D/F# Dsus2 Em Em7 G
Rate #1 of 2 versions

Jango Player

Login - add to songbook

SHARE PAGE  




You need to log in to post comments