Guitar Tabs, Chords and Lyrics
Login is temporarily disabled for some users. Do not panic. Will be back in an hour or two. DO NOT REREGISTER!!


I Never Told You  Colbie Caillat

 
 -------------------------------------------------------------------------------

I Never Told You - Colbie Caillat
 
 -------------------------------------------------------------------------------

Tuning:Standard
Capo 1
 
 e|---------------------------------------------------------------------------|
 B|-3-7-------------3-7-------------------------------------------------------|
 G|-----4-2-4-----------4-2-4-7-9---------------------------------------------|
 D|-----------2-4-7-----------------------------------------------------------|
 A|---------------------------------------------------------------------------|
 E|---------------------------------------------------------------------------|

[Bm]I miss those [G]blue eyes
[D]How you kiss me [A]at night
[Bm]I miss the [G]way we sl[D]eep[A]
[Bm]Like there's no [G]sunrise
[D]Like the taste of [A]your smile
[Bm]I miss the [G]way we bre[D]athe[A]
G (strum once)
But I never told you
D (strum once)
What I should have said
G (strum once)
No, I never told you
D (strum once)
I just held it in
[A]And now,
[Bm]I miss every[G]thing abou[D]t you[A]
[Bm]Can't believe that [G]I still wan[D]t you[A]
And [Bm]after all the [G]things we've been[D] through[A]
[Bm]I miss every[G]thing about[D] you
[A]Without you
 
 e|---------------------------------------------------------------------------|
 B|-3-7-----------------------------------------------------------------------|
 G|-----4-2-4-----------------------------------------------------------------|
 D|-----------2-4-7-----------------------------------------------------------|
 A|---------------------------------------------------------------------------|
 E|---------------------------------------------------------------------------|

[Bm]I see your [G]blue eyes
[D]Everytime I [A]close mine
[Bm]You make it [G]hard to see[D] [A]
[Bm]Where I belon[G]g to
[D]When I'm not [A]around you
[Bm]It's like I'm [G]not with [D]me[A]
G (strum once)
But I never told you
D (strum once)
What I should have said
G (strum once)
No, I never told you
D (strum once)
I just held it in
[A]And now,
[Bm]I miss ever[G]ything abo[D]ut you[A]
[Bm]Can't believe that[G] I still w[D]ant you[A]
And [Bm]after all the [G]things we've be[D]en through[A]
[Bm]I miss every[G]thing abo[D]ut you
[A]Without you
 
 e|---------------------------------------------------------------------------|
 B|-3-7-------------3-7-------------------------------------------------------|
 G|-----4-2-4-----------4-2-4-7-9---------------------------------------------|
 D|-----------2-4-7-----------------------------------------------------------|
 A|---------------------------------------------------------------------------|
 E|---------------------------------------------------------------------------|

G (strum once)
But I never told you
D (strum once)
What I should have said
G (strum once)
No, I never told you
D (strum once)
I just held it in
[A]And now,
[Bm]I miss every[G]thing about[D] you[A]
[Bm]Can't believe that [G]I still want[D] you[A]
And [Bm]after all the [G]things we've been[D] through[A]
[Bm]I miss ever[G]ything abou[D]t you
[A]Without you
Bm G D A x3

Important: The song above is NOT stored on the Chordie server. The original song is hosted at www.guitaretab.com. Chordie works as a search engine and provides on-the-fly formatting. Chordie does not index songs against artists'/composers' will. To remove this song please click here.

Text color:
Chord color:
Chord grids: 
Font size:    
Page size: 

A Bm D G
Rate #1 of 18 versions

Login - add to songbook

SHARE PAGE  




You need to log in to post comments