Guitar Tabs, Chords and Lyrics
Major upgrade!! After one year development the new version of Chordie is now online! Please give feedback.


Realize  Colbie Caillat

title: Realize
Artist: Colbie Caillat
Tuning: Standard
Note: Capo on the 6th fret
additional note: hehehe....Love You Luvs Madel...I realize that I cant live without
please,please,please wait for me...mwah...mwah...mwah...Love you so Much
Verse 1:
[G]Take time to realize
Dsus4(onF#) Cadd9 Em7 Dsus4(onF#)
That your warmth is crashing down on me
[G]Take time to Realize
Dsus4(onF#) Cadd9 Em7 Dsus4(onF#)
That I am on your side Didn?t I, didn?t I tell you
Pre-Chorus:
[Cadd9]But I cant spell it [Em7]out for you
D(onF#)
No its never gonna be that simple
Cadd9 Em7 D(onF#)
No I cant spell it out for you
Chorus:
G Dsus4(onF#)
If you just realize, what I just realized
Then we?d be p[Em7]erfect for each other and we?ll n[Cadd9]ever find another
G Dsus4(onF#)
Just realize what I just realized,
we?d n[Em7]ever have to wonder if we m[Cadd9]issed out on each other now
G/Dsus4(onF#)/Em7/Cadd9/
Verse 2:
Take time to realize
Oh oh, I'm on your side
Didn't I, didn't I tell you
(then goes the licks below)
Capo on the six fret - guitar licks for the song Realize
 
 e|-----------------------------|
 B|------------3/5---3----------|
 G|--------2-4-----4------------|
 D|--2h4-5----------------------|
 A|-----------------------------|
 E|-----------------------------|

(then follows the lick below)
 
 e|-----------------------------|
 B|-----------------------------|
 G|--------2-2/4----------------|
 D|--2h4-5-------5-5/7-7--------|
 A|-----------------------------|
 E|-----------------------------|

Take time to realize
This all can pass you by..
Didn't I tell you
PC:
Ch:
but?..
B:
Em7 D(onF#) Cadd9 D(onF#)
Its not the same, no its never the same
Em7/D(onF#)/G/G(onB)/Cadd9/
If you don?t feel it too
If you meet me half way, If you would meet me half way
It could be the same for you...
-Repeat Chorus 4 times
(then on the last 2 chorus you will hear this)
 
 e|-----------------------------|
 B|-----------------------------|
 G|-----------------------------|do this until the last 2 chorus ends...
 D|----5-4-5-4-----5-4-5-4------|
 A|--5---------5-5---------5----|
 E|-----------------------------|

(and on the very ending you will hear this)
 
 e|-----------------------------|
 B|-----------------------------|
 G|--2/4~-5-4hp5----------------|
 D|--------------5-5/7----------|
 A|-----------------------------|
 E|-----------------------------|

the song is very easy....

Important: The song above is NOT stored on the Chordie server. The original song is hosted at www.guitaretab.com. Chordie works as a search engine and provides on-the-fly formatting. Chordie does not index songs against artists'/composers' will. To remove this song please click here.

Text color:
Chord color:
Chord grids: 
Font size:    
Page size: 

Cadd9 Em7 G
Rate #0 of 19 versions

Jango Player

Login - add to songbook

SHARE PAGE  




You need to log in to post comments