Guitar Tabs, Chords and Lyrics
Login is temporarily disabled for some users. Do not panic. Will be back in an hour or two. DO NOT REREGISTER!!


Now You Love Me  The Dandy Warhols

===============
Author: The Dandy Warhols
Album: ...Earth to the Dandy Warhols...
Track: 7
 
 ---------------------------------------

Tabs by: jcb142@hotmail.com
Date: 12/29/2008
 
 ---------------------------------------

This is how I play this song:
Intro:
[Em] [Em]  
[--7--7-]--8--8-
[--9--9-]  
[--9--9-]  
[--7--7-]  
[--7--7-]  
And then he starts to sing...
[Em] [Em] [Em] [Em] [D] [D] [A] [A]  
 
 -x--7--x--7--x--7--x--7--x--5--x--5--x--5--x--5
 -x--8--x--8--x--8--x--8--x--7--x--7--x--5--x--5
 -x--9--x--9--x--9--x--9--x--7--x--7--x--6--x--6
 -x--9--x--9--x--9--x--9--x--7--x--7--x--7--x--7
 -x--7--x--7--x--7--x--7--x--5--x--5--x--7--x--7
 -x--7--x--7--x--7--x--7--x--5--x--5--x--5--x--5

The rithm changes along the song, but the chords are the same (I think)

Important: The song above is NOT stored on the Chordie server. The original song is hosted at www.guitaretab.com. Chordie works as a search engine and provides on-the-fly formatting. Chordie does not index songs against artists'/composers' will. To remove this song please click here.

Text color:
Chord color:
Chord grids: 
Font size:    
Page size: 

A D Em
Rate #1 of 5 versions

Login - add to songbook

SHARE PAGE  




You need to log in to post comments