Guitar Tabs, Chords and Lyrics
Login is temporarily disabled for some users. Do not panic. Will be back in an hour or two. DO NOT REREGISTER!!


Bohemian Like You  The Dandy Warhols

Song: Bohemian Like You
Album: Thirteen Tales from Urban Bohemia
Tabbed by: hainzei95
Tuning: Standard
Capo : 2nd Fret
Chords: (according to capo)
e [A]0 [C]0 [G]3 [D]2 [E]x
B 2 1 3 3 x
G 2 0 0 2 x
D 2 2 0 0 2
A 0 3 2 x 2
E x x 3 x 0
Intro:
 
 e|-0-0-0-0-0-x-0-0-1-1-0-x-3-3-3-3-3-x-2-3-3-2-2-3-3-|
 B|-2-2-3-3-2-x-1-1-1-1-1-x-0-0-1-1-0-x-3-3-3-3-3-3-3-|
 G|-2-2-2-2-2-x-0-0-0-0-0-x-0-0-0-0-0-x-2-2-2-2-2-2-2-|
 D|-2-2-2-2-2-x-2-2-2-2-2-x-0-0-0-0-0-x-0-0-0-0-0-0-0-| x2
 A|-0-0-0-0-0-x-3-3-3-3-3-x-2-2-2-2-2-x---------------|
 E|-----------x-----------x-3-3-3-3-3-x---------------|

A G E E x4
You've got a great [A]car
yea what's [C]wrong with it today
I [G]used to have one too
maybe I'll [D]come and have a look
I really [A]love your hair[C]do yea
I'm [G]glad you like mine too
see we're [D]looking pretty cool
look at ya
A G E E x4
So what do you [A]do
oh yea I [C]wait tables too
no I [G]haven't heard your band
'cause you [D]guys are pretty new
but if you [A]dig on [C]vegan food
well come [G]over to my work
I'll have 'em [D]cook you something
that you really [A]love
'cause I [C]like you yea I [G]like you
and I'm [D]feeling so bohemian [A]like you
yea I [C]like you yea I [G]like you
and I [D]feel woho whoo
 
 e|-0-0-0-0-0-x-0-0-1-1-0-x-3-3-3-3-3-x-2-3-3-2-2-3-3-|
 B|-2-2-3-3-2-x-1-1-1-1-1-x-0-0-1-1-0-x-3-3-3-3-3-3-3-|
 G|-2-2-2-2-2-x-0-0-0-0-0-x-0-0-0-0-0-x-2-2-2-2-2-2-2-|
 D|-2-2-2-2-2-x-2-2-2-2-2-x-0-0-0-0-0-x-0-0-0-0-0-0-0-| x2
 A|-0-0-0-0-0-x-3-3-3-3-3-x-2-2-2-2-2-x---------------|
 E|-----------x-----------x-3-3-3-3-3-x---------------|

A G E E x4
Wait who's that [A]guy
just [C]hanging at your pad
he's [G]looking kind of bummed
yea you [D]broke up that's too bad
I guess it's [A]fair
if he [C]always pays the rent
and he [G]doesn't get bent
about [D]sleeping on the couch
when I'm [A]there
'cause I [C]like you yea I [G]like you
and I'm [D]feeling so bohemian [A]like you
yea I [C]like you yea I [G]like you
and I [D]feel woho whoo
 
 e|-0-0-0-0-0-x-0-0-1-1-0-x-3-3-3-3-3-x-2-3-3-2-2-3-3-|
 B|-2-2-3-3-2-x-1-1-1-1-1-x-0-0-1-1-0-x-3-3-3-3-3-3-3-|
 G|-2-2-2-2-2-x-0-0-0-0-0-x-0-0-0-0-0-x-2-2-2-2-2-2-2-|
 D|-2-2-2-2-2-x-2-2-2-2-2-x-0-0-0-0-0-x-0-0-0-0-0-0-0-| x2
 A|-0-0-0-0-0-x-3-3-3-3-3-x-2-2-2-2-2-x---------------|
 E|-----------x-----------x-3-3-3-3-3-x---------------|

[A]I'm getting wise
and I'm [C]feeling so bohemian [G]like you
it's [D]you that I want so [A]please
just a [C]casual casual [G]easy thing
[D]is it it is for [A]me
And I [C]like you yea I [G]like you
and I [D]like you I like you I [A]like you I like you
I [C]like you I like you I [G]like you I like you
and I [D]feel woho whoo
 
 e|-0-0-0-0-0-x-0-0-1-1-0-x-3-3-3-3-3-x-2-3-3-2-2-3-3-|
 B|-2-2-3-3-2-x-1-1-1-1-1-x-0-0-1-1-0-x-3-3-3-3-3-3-3-|
 G|-2-2-2-2-2-x-0-0-0-0-0-x-0-0-0-0-0-x-2-2-2-2-2-2-2-|
 D|-2-2-2-2-2-x-2-2-2-2-2-x-0-0-0-0-0-x-0-0-0-0-0-0-0-| x2
 A|-0-0-0-0-0-x-3-3-3-3-3-x-2-2-2-2-2-x---------------|
 E|-----------x-----------x-3-3-3-3-3-x---------------|

A G E E x4
End on A

Important: The song above is NOT stored on the Chordie server. The original song is hosted at www.guitaretab.com. Chordie works as a search engine and provides on-the-fly formatting. Chordie does not index songs against artists'/composers' will. To remove this song please click here.

Text color:
Chord color:
Chord grids: 
Font size:    
Page size: 

A C D E G
Rate #4 of 12 versions

Login - add to songbook

SHARE PAGE  



You need to log in to post comments