Guitar Tabs, Chords and Lyrics
Major upgrade!! After one year development the new version of Chordie is now online! Please give feedback.


The Beast   Darkthrone

 
 |-----------------------------------------------------------------------------
 |-----------------------------------------------------------------------------
 |-----------------------------------------------------------------------------
 |-7--7-7-7-7-7-7--7--7-7-7-7-7-7--7--7-7--5/7--5/7--5-5-7-7-7-7-8-8-8-8-8-8-8-
 |-7--7-7-7-7-7-7--7--7-7-7-7-7-7--7--7-7--5/7--5/7--5-5-7-7-7-7-8-8-8-8-8-8-8-
 |-5--5-5-5-5-5-5--5--5-5-5-5-5-5--5--5-5--3/5--3/5--3-3-5-5-5-5-6-6-6-6-6-6-6-

 


 


 [End] [1]  

 
 ------------|---------------------------------|-------------------------------|
 ------------------------------------------------------------------------------|
 ------------------------------------------------------------------------------|
 -8-8-8-8-8-----4-4-4-4-4-4-4-4-4-4-4-4-44--8-----6-6-6-6-6-6-6-6-6-6-6-6-6--8-|
 -8-8-8-8-8-----4-4-4-4-4-4-4-4-4-4-4-4-44--8-----6-6-6-6-6-6-6-6-6-6-6-6-6--8-|
 -6-6-6-6-6--|--2-2-2-2-2-2-2-2-2-2-2-2-22--6--|--4-4-4-4-4-4-4-4-4-4-4-4-4--6-|

 


 N.R.


 

 
 |-----------------------------------------------------------------------------
 |-----------------------------------------------------------------------------
 |---4-4-4-4-4-4-4-4-4-4-4-----------------------------------------------------
 |---4-4-4-4-4-4-4-4-4-4-4-----------4--4-4-4-4-4-4--4--4-4-4-----4-4-4-4-4-4--
 |---2-2-2-2-2-2-2-2-2-2-2--4-4b--r--4--4-4-4-4-4-4--4--4-4-4--4--4-4-4-4-4-4--
 |-----------------------------------2--2-2-2-2-2-2--2--2-2-2--5--2-2-2-2-2-2--

 


 N.R. End 1


 

 
 -----------------|--------------------------------------------------|---------|
 -----------------|------------------------------------------------------------|
 -----------------|--4--4-4-4-4-4-4--4--44-4-4-4-4-4--4--4-4-4-4-4-4-----------|
 ----4-4-4-4-4-4--|--4--4-4-4-4-4-4--4--44-4-4-4-4-4--4--4-4-4-4-4-4---6-------|
 --2-4-4-4-4-4-4--|--2--2-2-2-2-2-2--2--22-2-2-2-2-2--2--2-2-2-2-2-2---4--8----|
 --0-2-2-2-2-2-2--|--------------------------------------------------|----6-br-|

 


 0.25 b


 


 [End] [2]  

 
 |--------------------------|
 ---------------------------|
 ---------------------------|
 --4-3-3-3--3-3-3--2--2--5--|
 --4-3-3-3--3-3-3--2--2--5--|
 |-2-1-1-1--1-1-1--0--0--3--|

 


 


 N.R. (slower)


 

 
 ------------------------------------------------|
 ------------------------------------------------|
 ------------------------------------------------|
 --6-6-6-6-6-6-6-6--3-3-3------------------------|
 --6-6-6-6-6-6-6-6--3-3-3--2-2-2-2-2-2-2--2------|
 --4-4-4-4-4-4-4-4--1-1-1--0-0-0-0-0-0-0--0--2-3-|
 |---------------| 


Important: The song above is NOT stored on the Chordie server. The original song is hosted at www.guitaretab.com. Chordie works as a search engine and provides on-the-fly formatting. Chordie does not index songs against artists'/composers' will. To remove this song please click here.

This song is displayed as text-only. Transposing and tuning is only available for chordpro-songs.
Rate #1 of 3 versions

Jango Player

Login - add to songbook

SHARE PAGE  




You need to log in to post comments