Guitar Tabs, Chords and Lyrics
Major upgrade!! After one year development the new version of Chordie is now online! Please give feedback.


Under a Funeral Moon  Darkthrone

Transcribed by Lord Diabolus Noctifer
Riff 1
 
 e|---------------|
 B|---------------|
 G|---------------|

D|----88889999888|
A|222266667777666|
 
 E|0000-----------|

Riff 2
[A] [B]  
 
 e|-------||-------|
 B|-------||-------|
 G|-------||-------|
 D|4-4-4-3||-------|
 A|2-2-2-1||5-5-5-4|
 E|-------||3-3-3-2|

Riff 3
1.Git.
 
 e|----------------------------------------------------|
 B|----------------------------------------------------|
 G|----------------------------------------------------|
 D|-----------------------------------------------*-*-*|
 A|12-12-12-12-p13-12-p11-12-p13-12-12-12-p13-12-101413|
 E|----------------------------------------------------|

2.Git.
 
 e|----------------------------------------------------|
 B|-----------------------------------------------*-*-*|
 G|-9--9--9--9--10--9---8--9--10--9--9--9--10--9--71110|
 D|-7--7--7--7--p8--7--p6--7--p8--7--7--7--p8--7--5-9-8|
 A|----------------------------------------------------|
 E|----------------------------------------------------|

Riff 4
[A] [B]  
 
 e|-------------------||-------------------|
 B|-------------------||-------------------|
 G|-------------------||-------------------|
 D|-------------------||----6-6-6/555-5/333|
 A|2-2-6-6-6/555-5/333||2-2-4-4-4/333-3/111|
 E|0-0-4-4-4/333-3/111||0-0----------------|

Riff 5
 
 e|----------------|---------------|
 B|----------------|---------------|
 G|----------------|---------------|
 D|----------------|---------------|
 A|2-2-3-3-2-2-22-5|2-2-3-3-2-2-2-3|
 E|0-0-1-1-0-0-00-3|0-0-1-1-0-0-0-1|

Riff 6
 
 e|-------|
 B|-------|
 G|-------|
 D|-------|

A|5-4-8-9|
E|3-2-6-7|
Riff 7
 
 e|----------------------------|
 B|----------------------------|
 G|----------------------------|

D|1010101011111111111111117777|
 
 A|-8-8-8-8-9-9-9-9-9-9-9-95555|
 E|----------------------------|

______________________________________________________
Ablauf:
___________
Riff 1 6x | Part 1
|
Riff 2 A x6 | 2x
B x4 |
|
Riff 3 4x____________|
Riff 4 A x4
B x4
Riff 5 4x
________________________
|
| Part 1
________________________|
Riff 6 1x
Riff 7 3x

Important: The song above is NOT stored on the Chordie server. The original song is hosted at www.guitaretab.com. Chordie works as a search engine and provides on-the-fly formatting. Chordie does not index songs against artists'/composers' will. To remove this song please click here.

Text color:
Chord color:
Chord grids: 
Font size:    
Page size: 

A B
Rate #1 of 2 versions

Login - add to songbook

SHARE PAGE  




You need to log in to post comments