Guitar Tabs, Chords and Lyrics
Major upgrade!! After one year development the new version of Chordie is now online! Please give feedback.


Xerces   Deftones

 
 [----------------------------------]
 [--2--4--6--2----------------------]
 [--x--x--x--x----------------------]
 [--3--5--7--3--8--3----------------]
 [--4--6--8--4--8--3----------------]
 [--------------8--3----------------]

 


 


 verse


 basically the same except like this


 stef holds the 3's on one of the measures


 

 
 [------------------------]
 [-2----------------------]
 [-x----------------------]
 [-3--8--3----------------]
 [-4--8--3----------------]
 [----8--3----------------]

 


 


 chorus


 

 
 [--------------------------------------------------------]
 [--------------------------------------------------------]
 [---------------7-7-7-7-7--------------------------------]
 [--3--3-3-3-3---7-7-7-7-7--7-7-7-7-7-7-7-7-7-7-----------]
 [--3--3-3-3-3---5-5-5-5-5--7-7-7-7-7-7-7-7-7-7-----------]
 [--3--3-3-3-3--------------7-7-7-7-7-7-7-7-7-7-----------]


Important: The song above is NOT stored on the Chordie server. The original song is hosted at www.guitaretab.com. Chordie works as a search engine and provides on-the-fly formatting. Chordie does not index songs against artists'/composers' will. To remove this song please click here.

This song is displayed as text-only. Transposing and tuning is only available for chordpro-songs.
Rate #2 of 5 versions

Jango Player

Login - add to songbook

SHARE PAGE  




You need to log in to post comments