Guitar Tabs, Chords and Lyrics
Major upgrade!! After one year development the new version of Chordie is now online! Please give feedback.


Ala delta  Divididos

Intro
[D] [E]  
 
 e|--2------|
 B|--3------|
 G|--2--1---|
 D|--0--2---|
 A|-----2---|
 E|-----0---|

Verse
[E] [D] [A] [E] [D] [E]  
 
 e|-----2--0-------2----|
 B|-----3--2-------3----|
 G|--1--2--2--1----2--1-|
 D|--2--0--2--2----0--2-|
 A|--2-----0--2-------2-|
 E|--0--------0-------0-|

Chorus
[D] [G] [E]  
 
 e|--2--3-----|
 B|--3--0-----|
 G|--2--0--1--|
 D|--0--0--2--|
 A|-----2--2--|
 E|-----3--0--|

[End]  
 
 e|--2-----|
 B|--3-----|
 G|--2--1--|
 D|--0--2--|
 A|-----2--|
 E|-----0--|


Important: The song above is NOT stored on the Chordie server. The original song is hosted at www.guitaretab.com. Chordie works as a search engine and provides on-the-fly formatting. Chordie does not index songs against artists'/composers' will. To remove this song please click here.

Text color:
Chord color:
Chord grids: 
Font size:    
Page size: 

A D E G
Rate #4 of 5 versions

Jango Player

Login - add to songbook

SHARE PAGE  



You need to log in to post comments