Guitar Tabs, Chords and Lyrics
Major upgrade!! After one year development the new version of Chordie is now online! Please give feedback.


Strike of the Ninja   DragonForce

 
 E----------------------------------------------|
 B----------------------------------------------|
 G----------------------------------------------|
 D-9-6--9-12-10-9-6--9-10-8--8-8-8-4-6----------|
 A----------------------------------------------|
 E----------------------------------------------|

 


 


 Part 2


 

 
 E--------------|
 G--------------|
 D--------------|
 A-7-9----------|
 E-5-7----------|

 


 


 Part 3


 

 
 E---------------------------------------------------------------|
 B-2-2-2-2-2-2-0-0-2-2-2-2-2-2-0-0-2-2-2-2-2-2-0-0-2-2-2-2-2-2-0-|
 G---------------------------------------------------------------|
 D---------------------------------------------------------------|
 A---------------------------------------------------------------|
 E---------------------------------------------------------------|
 E---------------------------------------------------------------|
 B-5-5-5-5-5-5-4-4-5-5-5-5-5-5-4-4-5-5-5-5-5-5-4-4-5-5-5-5-5-5-4-|
 G---------------------------------------------------------------|
 D---------------------------------------------------------------|
 A---------------------------------------------------------------|
 E---------------------------------------------------------------|
 E---------------------------------------------------------------|
 B-9-9-9-9-9-9-7-7-9-9-9-9-9-9-7-7-9-9-9-9-9-9-7-7-9-9-9-9-9-9-7-|
 G---------------------------------------------------------------|
 D---------------------------------------------------------------|
 A---------------------------------------------------------------|
 E---------------------------------------------------------------|
 E---------------------------------------------------------------|
 B-14-14-14-14-14-14-12-12-14-14-14-14-14-14-12------------------|
 G---------------------------------------------------------------|
 D---------------------------------------------------------------|
 A---------------------------------------------------------------|
 E---------------------------------------------------------------|

 


 


 Part 4


 

 
 E---------------------------------------------------------------|
 B-14p12h14p12-9p7h9p7-5p4h5p4-2p0h2p0---------------------------|
 G---------------------------------------------------------------|
 D---------------------------------------------------------------|
 A---------------------------------------------------------------|
 E---------------------------------------------------------------|

 


 


 Verse


 PM


 


 

 
 ||----------------------------------------------|
 ||o--------------------------------------------o|
 ||----------------------------------------------| X2
 ||-----6----------------------------------------|
 ||o-4--4---------7--7-7-7-7-7--6--6-6-6-6-6----o|
 ||---------------5--5-5-5-5-5--4--4-4-4-4-4-----|

 


 


 Pre-Chorus


 

 
 PM--------| PM-------| PM------------------------|
 |--------------------------------------------------------|
 |--------------------------------------------------------|
 |--------------------------------------------------------|
 |-----------------6---------6--6---------6--6--4--6------|
 |7----------------4-4-4-4-4-4--4-4-4-4-4-4--4--2--4------|
 |5-5-5-5-5-5---------------------------------------------|
 |------------------------------------------------|
 |------------------------------------------------|
 |------------------------------------------------|
 |------------------------------------------------|
 |7---------------6-6---6---6---------------------|
 |5-5-5-5-5-5-----4-4---4---4---------------------|

 


 


 Chorus


 


 

 
 |------------------------------------------------|
 |------------------------------------------------|
 |------------------------------------------------| X3
 |------------------------------------------------|
 |11--7-------9-----11-----11---------------------|
 |9---5---5-5-7-7-7-9--9-9-9----------------------|
 |------------------------------------------------|
 |------------------------------------------------|
 |------------------------------------------------|
 |------------------------------------------------|
 |-----7-----9-----9---11-------------------------|
 |-0-0-5--0--7-7-7-7-0-9--------------------------|

 


 


 Verse 2


 PM


 


 

 
 ||----------------------------------------------|
 ||o--------------------------------------------o|
 ||----------------------------------------------| X2
 ||-----6----------------------------------------|
 ||o-4--4---------7--7-7-7-7-7--6--6-6-6-6-6----o|
 ||---------------5--5-5-5-5-5--4--4-4-4-4-4-----|

 


 


 T T T T T T T T T


 [9]T [9]T [9]T [9]T [9]T [9]T [9]T [9]T [9]T [9]T [9]T [9]T [9]T [9]T [9]T [9]T [9]T [9]T [9]T [9]T [9]T [9]T [9]T [9]T [9]T


 

 
 E||--11p-4h-7-11p-7p-4-11p-4h-7-11p-7p-4-11p-4h-7-11p-7p-4-11p-4h-7-11p-7p-4-11--|p
 B||------------------------------------------------------------------------------|
 G||------------------------------------------------------------------------------|
 D||------------------------------------------------------------------------------|
 A||------------------------------------------------------------------------------|
 E||------------------------------------------------------------------------------|

 


 


 T T T T T T T T T


 [9]T [9]T [9]T [9]T [9]T [9]T [9]T [9]T [9]T [9]T [9]T [9]T [9]T [9]T [9]T [9]T [9]T [9]T [9]T [9]T [9]T [9]T [9]T [9]T [9]T [9]T


 

 
 --12p-4h-7-12p-7p-4-12p-4h-7-12p-7p-4-12p-4h-7-12p-7p-4-12p-4h-7-12p-7p-4-12p-4--|h
 ---------------------------------------------------------------------------------|
 ---------------------------------------------------------------------------------|
 ---------------------------------------------------------------------------------|
 ---------------------------------------------------------------------------------|
 ---------------------------------------------------------------------------------|
 |---3---| |---3---| |---3---| |---3--| |---3---| |---3---|

 


 S S S S S S S S S S S S S S S S S S S S S


 

 
 -------------11h-12h-14h-16p-14p-12h-14p-12--------------------------------------|
 --14h-16h-17--------------------------------14p-12----12h-14h-16h-17p-16p-14p-12-|
 ---------------------------------------------------13----------------------------|
 ---------------------------------------------------------------------------------|
 ---------------------------------------------------------------------------------|
 ---------------------------------------------------------------------------------|

 


 


 T T T T


 

 
 |---3--| |---3--| |--3--|

 


 S S S S S S S S S S S S S S S Q


 

 
 --16p-12-16p-12p-11p-9--------------------------------------|
 -----------------------14p-9-14p-9p-7-----------------------|
 --------------------------------------11p-9h-11p-9----------|
 ---------------------------------------------------11~----|
 ------------------------------------------------------------|
 ------------------------------------------------------------|

 


 


 PH PH


 

 
 |---3---|

 


 Q. S S Q. S S S


 

 
 -----------------------------------------|
 --19b------L-17-19~------17h-19p-17p-|
 -----------------------------------------|
 -----------------------------------------|
 -----------------------------------------|
 -----------------------------------------|
 |---3---| |-------5-------|

 


 E E E E E E E E E E W


 

 
 -------------------------------------------|--------------------|
 --16--17--16--14----------------------14~--|--L~----------------|
 ------------------16--13------13--16-------|--------------------|
 --------------------------16---------------|--------------------|
 -------------------------------------------|--------------------|
 -------------------------------------------|--------------------|
 |--3--| |--3--| |--3--| |--3--| |--3--| |--3--| |--3--| |--3--|

 


 S S S S S S S S S S S S S S S S S S S S S S S S


 

 
 --------------16----------------16----------------16----------------16----|
 -----------17----17----------17----17----------17----17----------17----17-|
 --------18----------18----18----------18----18----------18----18----------|
 -----18----------------18----------------18----------------18-------------|
 --19----------------------------------------------------------------------|
 --------------------------------------------------------------------------|

 


 


 E S E. E Q. S S


 

 
 --16g19--19-19---19--19------19-19-|
 -----------------------------------|
 -----------------------------------|
 -----------------------------------|
 -----------------------------------|
 -----------------------------------|

 


 


 S S S S S S S S S S S S S S S S


 

 
 --19s-17-17-17-17s-16-16-16-16s-14-14-14-14s-12-12-12-|
 ------------------------------------------------------|
 ------------------------------------------------------|
 ------------------------------------------------------|
 ------------------------------------------------------|
 ------------------------------------------------------|

 


 


 \1/


 E. E. E E. E. E E. E. E Q Q


 

 
 --12g14---14---16--16g17---16---12--|--12g14---14---12--14~----14----|
 ------------------------------------|----------------------------------|
 ------------------------------------|----------------------------------|
 ------------------------------------|----------------------------------|
 ------------------------------------|----------------------------------|
 ------------------------------------|----------------------------------|

 


 


 T T T T T T T T T T T T T


 T T T T T T T T T T T T T T T T T T T T T T T T T


 

 
 --12p-9-12p-9-12p-9-12p-9-11p-9-11p-9-12p-9-12p-9-16p-12-16p-12-16p-12-16p-12-14-|
 ---------------------------------------------------------------------------------|
 ---------------------------------------------------------------------------------|
 ---------------------------------------------------------------------------------|
 ---------------------------------------------------------------------------------|
 ---------------------------------------------------------------------------------|

 


 


 T T T T T T T T T T T


 T T T T T T T T T T T T T T T T T T T T T T


 

 
 --16p-12-16p-12-16p-12-16p-12-14p-12-14p-12-16p-12-16p-12-17p-12-17p-12-17p-12-1-|
 ---------------------------------------------------------------------------------|
 ---------------------------------------------------------------------------------|
 ---------------------------------------------------------------------------------|
 ---------------------------------------------------------------------------------|
 ---------------------------------------------------------------------------------|

 


 


 S S S S S S S S S S S S S S S S


 

 
 --12g14-12-11-12-11-11----11-------------------------|
 -----------------------14----14-12----12-------------|
 -----------------------------------13----13-13-11-13-|
 -----------------------------------------------------|
 -----------------------------------------------------|
 -----------------------------------------------------|

 


 


 PM PM PM PM PM PM PM PM PM PM PM PM PM PM PM PM PH


 S S S S S S S S S S S S S S S S W


 

 
 --------------------16-16-17-17-16-16-------------|--17----------------||
 --16-16-17-17-19-19-------------------19-19-17-17-|----------------------||
 --------------------------------------------------|----------------------||
 --------------------------------------------------|----------------------||
 --------------------------------------------------|----------------------||
 --------------------------------------------------|----------------------||

 


 


 Chorus


 


 

 
 |------------------------------------------------|
 |------------------------------------------------|
 |------------------------------------------------| X3
 |------------------------------------------------|
 |11--7-------9-----11-----11---------------------|
 |9---5---5-5-7-7-7-9--9-9-9----------------------|
 |------------------------------------------------|
 |------------------------------------------------|
 |------------------------------------------------|
 |------------------------------------------------|
 |-----7-----9-----9---11-------------------------|
 |-0-0-5--0--7-7-7-7-0-9--------------------------|

 


 


 


 solo


 


 T T T T T T T T T


 [9]T [9]T [9]T [9]T [9]T [9]T [9]T [9]T [9]T [9]T [9]T [9]T [9]T [9]T [9]T [9]T [9]T [9]T [9]T [9]T [9]T [9]T [9]T [9]T [9]T


 

 
 E||--11p-4h-7-11p-7p-4-11p-4h-7-11p-7p-4-11p-4h-7-11p-7p-4-11p-4h-7-11p-7p-4-11--|p
 B||------------------------------------------------------------------------------|
 G||------------------------------------------------------------------------------|
 D||------------------------------------------------------------------------------|
 A||------------------------------------------------------------------------------|
 E||------------------------------------------------------------------------------|

 


 


 T T T T T T T T T


 [9]T [9]T [9]T [9]T [9]T [9]T [9]T [9]T [9]T [9]T [9]T [9]T [9]T [9]T [9]T [9]T [9]T [9]T [9]T [9]T [9]T [9]T [9]T [9]T [9]T [9]T


 

 
 --12p-4h-7-12p-7p-4-12p-4h-7-12p-7p-4-12p-4h-7-12p-7p-4-12p-4h-7-12p-7p-4-12p-4--|h
 ---------------------------------------------------------------------------------|
 ---------------------------------------------------------------------------------|
 ---------------------------------------------------------------------------------|
 ---------------------------------------------------------------------------------|
 ---------------------------------------------------------------------------------|
 |---3---| |---3---| |---3---| |---3--| |---3---| |---3---|

 


 S S S S S S S S S S S S S S S S S S S S S


 

 
 -------------11h-12h-14h-16p-14p-12h-14p-12--------------------------------------|
 --14h-16h-17--------------------------------14p-12----12h-14h-16h-17p-16p-14p-12-|
 ---------------------------------------------------13----------------------------|
 ---------------------------------------------------------------------------------|
 ---------------------------------------------------------------------------------|
 ---------------------------------------------------------------------------------|

 


 


 T T T T


 

 
 |---3--| |---3--| |--3--|

 


 S S S S S S S S S S S S S S S Q


 

 
 --16p-12-16p-12p-11p-9--------------------------------------|
 -----------------------14p-9-14p-9p-7-----------------------|
 --------------------------------------11p-9h-11p-9----------|
 ---------------------------------------------------11~----|
 ------------------------------------------------------------|
 ------------------------------------------------------------|

 


 


 PH PH


 

 
 |---3---|

 


 Q. S S Q. S S S


 

 
 -----------------------------------------|
 --19b------L-17-19~------17h-19p-17p-|
 -----------------------------------------|
 -----------------------------------------|
 -----------------------------------------|
 -----------------------------------------|
 |---3---| |-------5-------|

 


 E E E E E E E E E E W


 

 
 -------------------------------------------|--------------------|
 --16--17--16--14----------------------14~--|--L~----------------|
 ------------------16--13------13--16-------|--------------------|
 --------------------------16---------------|--------------------|
 -------------------------------------------|--------------------|
 -------------------------------------------|--------------------|
 |--3--| |--3--| |--3--| |--3--| |--3--| |--3--| |--3--| |--3--|

 


 S S S S S S S S S S S S S S S S S S S S S S S S


 

 
 --------------16----------------16----------------16----------------16----|
 -----------17----17----------17----17----------17----17----------17----17-|
 --------18----------18----18----------18----18----------18----18----------|
 -----18----------------18----------------18----------------18-------------|
 --19----------------------------------------------------------------------|
 --------------------------------------------------------------------------|

 


 


 E S E. E Q. S S


 

 
 --16g19--19-19---19--19------19-19-|
 -----------------------------------|
 -----------------------------------|
 -----------------------------------|
 -----------------------------------|
 -----------------------------------|

 


 


 S S S S S S S S S S S S S S S S


 

 
 --19s-17-17-17-17s-16-16-16-16s-14-14-14-14s-12-12-12-|
 ------------------------------------------------------|
 ------------------------------------------------------|
 ------------------------------------------------------|
 ------------------------------------------------------|
 ------------------------------------------------------|

 


 


 \1/


 E. E. E E. E. E E. E. E Q Q


 

 
 --12g14---14---16--16g17---16---12--|--12g14---14---12--14~----14----|
 ------------------------------------|----------------------------------|
 ------------------------------------|----------------------------------|
 ------------------------------------|----------------------------------|
 ------------------------------------|----------------------------------|
 ------------------------------------|----------------------------------|

 


 


 T T T T T T T T T T T T T


 T T T T T T T T T T T T T T T T T T T T T T T T T


 

 
 --12p-9-12p-9-12p-9-12p-9-11p-9-11p-9-12p-9-12p-9-16p-12-16p-12-16p-12-16p-12-14-|
 ---------------------------------------------------------------------------------|
 ---------------------------------------------------------------------------------|
 ---------------------------------------------------------------------------------|
 ---------------------------------------------------------------------------------|
 ---------------------------------------------------------------------------------|

 


 


 T T T T T T T T T T T


 T T T T T T T T T T T T T T T T T T T T T T


 

 
 --16p-12-16p-12-16p-12-16p-12-14p-12-14p-12-16p-12-16p-12-17p-12-17p-12-17p-12-1-|
 ---------------------------------------------------------------------------------|
 ---------------------------------------------------------------------------------|
 ---------------------------------------------------------------------------------|
 ---------------------------------------------------------------------------------|
 ---------------------------------------------------------------------------------|

 


 


 S S S S S S S S S S S S S S S S


 

 
 --12g14-12-11-12-11-11----11-------------------------|
 -----------------------14----14-12----12-------------|
 -----------------------------------13----13-13-11-13-|
 -----------------------------------------------------|
 -----------------------------------------------------|
 -----------------------------------------------------|

 


 


 PM PM PM PM PM PM PM PM PM PM PM PM PM PM PM PM PH


 S S S S S S S S S S S S S S S S W


 

 
 --------------------16-16-17-17-16-16-------------|--17----------------||
 --16-16-17-17-19-19-------------------19-19-17-17-|----------------------||
 --------------------------------------------------|----------------------||
 --------------------------------------------------|----------------------||
 --------------------------------------------------|----------------------||
 --------------------------------------------------|----------------------||

 


 


 


 Pre-Chorus


 

 
 PM--------| PM-------| PM------------------------|
 |--------------------------------------------------------|
 |--------------------------------------------------------|
 |--------------------------------------------------------|
 |-----------------6---------6--6---------6--6--4--6------|
 |7----------------4-4-4-4-4-4--4-4-4-4-4-4--4--2--4------|
 |5-5-5-5-5-5---------------------------------------------|
 |------------------------------------------------|
 |------------------------------------------------|
 |------------------------------------------------|
 |------------------------------------------------|
 |7---------------6-6---6---6---------------------|
 |5-5-5-5-5-5-----4-4---4---4---------------------|

 


 


 Chorus


 


 

 
 |------------------------------------------------|
 |------------------------------------------------|
 |------------------------------------------------| X3
 |------------------------------------------------|
 |11--7-------9-----11-----11---------------------|
 |9---5---5-5-7-7-7-9--9-9-9----------------------|
 |------------------------------------------------|
 |------------------------------------------------|
 |------------------------------------------------|
 |------------------------------------------------|
 |-----7-----9-----9---11-------------------------|
 |-0-0-5--0--7-7-7-7-0-9--------------------------|

 


 


 final


 

 
 |------------------------------------------------|
 |------------------------------------------------|
 |--2---4----6--------------------------6---------|
 |--2---4----6--------------------------6---------|
 |--0---2----4--------------------------4---------|
 |------------------------------------------------|


Important: The song above is NOT stored on the Chordie server. The original song is hosted at www.guitaretab.com. Chordie works as a search engine and provides on-the-fly formatting. Chordie does not index songs against artists'/composers' will. To remove this song please click here.

This song is displayed as text-only. Transposing and tuning is only available for chordpro-songs.
Rate #1 of 2 versions

Login - add to songbook

SHARE PAGE  




You need to log in to post comments