Guitar Tabs, Chords and Lyrics
Server problems seems to be fixed. Chordie has been experiencing problems with songs disappearing. These issues now seems to be fixed, but still verifying the fix. If you find anything strange, please email admin@chordie.com.


Live to Die  Evans Blue

 
 ----------------------------------------------------------------------------

Live To Die
Evans Blue
 
 ----------------------------------------------------------------------------

A very overdue tab of an underrated band. Enjoy!
Username: dkm817 (same on X box live)
Youtube Cover: http://www.youtube.com/watch?v=J8pVboYiQks
Email: guitardrums@rockfan.com
Guitar 1 Rhythmic (C G C F A D)
Guitar 2 Lead (C G C F A D)
NOTE: This was exported off of guitar pro.
Guitar 1
[E] [E] [E] [E] [E] [E] [E] [E] [E] [E] [E] [E] [E] [E] [E] [E]  
 
 D||--------------------------|---------------------------|
 A||--------------------------|---------------------------|
 F||--------------------------|---------------------------|
 C||--0--0-----0--8-----0--0--|-----0--10-----0--8-----0--|
 G||--0--0-----0--8-----0--0--|-----0--10-----0--8-----0--|
 C||--0--0-----0--8-----0--0--|-----0--10-----0--8-----0--|

[E] [E] [E] [E] [E] [E] [E] [E] [E] [E] [E] [E] [E] [E] [E] [E]  
 
 --------------------------|---------------------------|
 --------------------------|---------------------------|
 --------------------------|---------------------------|
 --0-----0--7-----0--0--0--|--0--8--8--0--8--10--0--3--|
 --0-----0--7-----0--0--0--|--0--8--8--0--8--10--0--3--|
 --0-----0--7-----0--0--0--|--0--8--8--0--8--10--0--3--|

[E] [E] [E] [E] [E] [E] [E] [E] [E] [E] [E] [E] [E] [E] [E] [E]  
 
 --------------------------|---------------------------|
 --------------------------|---------------------------|
 --------------------------|---------------------------|
 --0--0-----0--8-----0--0--|-----0--10-----0--8-----0--|
 --0--0-----0--8-----0--0--|-----0--10-----0--8-----0--|
 --0--0-----0--8-----0--0--|-----0--10-----0--8-----0--|

E E E E E E E E E E E E E E E E W
 
 --------------------------|--------------------------|-------------------|
 --------------------------|--------------------------|-------------------|
 --------------------------|--------------------------|-------------------|
 --0-----0--7-----0--0--0--|--8--7--0--5--0--5--7--3--|--0----------------|
 --0-----0--7-----0--0--0--|--8--7--0--5--0--5--7--3--|--0----------------|
 --0-----0--7-----0--0--0--|--8--7--0--5--0--5--7--3--|--0----------------|

W W W
 
 -------------------|-------------------|-------------------|-------------------|
 -------------------|-------------------|-------------------|-------------------|
 -------------------|-------------------|-------------------|-------------------|
 --L----------------|--L----------------|--L----------------|-------------------|
 --L----------------|--L----------------|--L----------------|-------------------|
 --L----------------|--L----------------|--L----------------|-------------------|
 -------------------|-------------------|-------------------|
 -------------------|-------------------|-------------------|
 -------------------|-------------------|-------------------|
 -------------------|-------------------|-------------------|
 -------------------|-------------------|-------------------|
 -------------------|-------------------|-------------------|

PM PM PM PM PM PM PM PM PM PM PM PM PM PM PM PM
[E] [E] [E] [E] [E] [E] [E] [E] [E] [E] [E] [E] [E] [E] [E] [E]  
 
 --------------------------|--------------------------|
 --------------------------|--------------------------|
 --------9--------9-----9--|--------9--------9-----9--|
 --0--0-----0--0-----0-----|--0--0-----0--0-----0-----|
 --------------------------|--------------------------|
 --------------------------|--------------------------|

PM PM PM PM PM PM PM PM PM PM PM PM PM PM PM PM
[E] [E] [E] [E] [E] [E] [E] [E] [E] [E] [E] [E] [E] [E] [E] [E]  
 
 --------------------------|--------------------------|
 --------------------------|--------------------------|
 --------9--------9-----9--|--------9--------9-----9--|
 --0--0-----0--0-----0-----|--0--0-----0--0-----0-----|
 --------------------------|--------------------------|
 --------------------------|--------------------------|

PM PM PM PM PM PM PM PM PM PM PM PM PM PM PM PM
[E] [E] [E] [E] [E] [E] [E] [E] [E] [E] [E] [E] [E] [E] [E] [E]  
 
 -----------------------------|--------------------------|
 -----------------------------|--------------------------|
 -----------------------------|--------------------------|
 --------10--------10-----10--|--------7--------7-----7--|
 -----------------------------|--------------------------|
 --8--8------8--8------8------|--5--5-----5--5-----5-----|

PM PM PM PM PM PM PM PM PM PM PM PM PM PM PM PM
[E] [E] [E] [E] [E] [E] [E] [E] [E] [E] [E] [E] [E] [E] [E] [E]  
 
 --------------------------|--------------------------|
 --------------------------|--------------------------|
 --------9--------9-----9--|--------9--------9-----9--|
 --0--0-----0--0-----0-----|--0--0-----0--0-----0-----|
 --------------------------|--------------------------|
 --------------------------|--------------------------|

PM PM PM PM PM PM PM PM PM PM PM PM PM PM PM PM
[E] [E] [E] [E] [E] [E] [E] [E] [E] [E] [E] [E] [E] [E] [E] [E]  
 
 --------------------------|--------------------------|
 --------------------------|--------------------------|
 --------9--------9-----9--|--------9--------9-----9--|
 --0--0-----0--0-----0-----|--0--0-----0--0-----0-----|
 --------------------------|--------------------------|
 --------------------------|--------------------------|

PM PM PM PM PM PM PM PM PM PM PM PM PM PM PM PM
[E] [E] [E] [E] [E] [E] [E] [E] [E] [E] [E] [E] [E] [E] [E] [E]  
 
 --------------------------|--------------------------|
 --------------------------|--------------------------|
 --------9--------9-----9--|--------9--------9-----9--|
 --0--0-----0--0-----0-----|--0--0-----0--0-----0-----|
 --------------------------|--------------------------|
 --------------------------|--------------------------|

PM PM PM PM PM PM PM PM PM PM PM PM PM PM PM PM
[E] [E] [E] [E] [E] [E] [E] [E] [E] [E] [E] [E] [E] [E] [E] [E]  
 
 -----------------------------|--------------------------|
 -----------------------------|--------------------------|
 -----------------------------|--------------------------|
 --------10--------10-----10--|--------7--------7-----7--|
 -----------------------------|--------------------------|
 --8--8------8--8------8------|--5--5-----5--5-----5-----|

PM PM PM PM PM PM PM PM PM PM PM PM PM PM PM PM
E E E E E E E E E E E E E E E E Q E E Q E E
 
 --------------------------|--------------------------|------------------------|
 --------------------------|--------------------------|------------------------|
 --------9--------9-----9--|--------9--------9-----9--|------------------------|
 --0--0-----0--0-----0-----|--0--0-----0--0-----0-----|--0----0--0--0----0--0--|
 --------------------------|--------------------------|--0----0--0--0----0--0--|
 --------------------------|--------------------------|--0----0--0--0----0--0--|

E E E E Q E E Q E E Q E E
 
 -------------------------|------------------------|
 -------------------------|------------------------|
 -------------------------|------------------------|
 --L--0--0--L--0----0--0--|--8----8--8--8----8--8--|
 --L--0--0--L--0----0--0--|--8----8--8--8----8--8--|
 --L--0--0--L--0----0--0--|--8----8--8--8----8--8--|

E E E E Q E E Q E E Q E E
 
 ------------------------------|------------------------|
 ------------------------------|------------------------|
 ------------------------------|------------------------|
 --L--10--10--L--10----10--10--|--0----0--0--0----0--0--|
 --L--10--10--L--10----10--10--|--0----0--0--0----0--0--|
 --L--10--10--L--10----10--10--|--0----0--0--0----0--0--|

E E E E Q E E Q E E Q E E
 
 -------------------------|------------------------|
 -------------------------|------------------------|
 -------------------------|------------------------|
 --L--0--0--L--0----0--0--|--8----8--8--8----8--8--|
 --L--0--0--L--0----0--0--|--8----8--8--8----8--8--|
 --L--0--0--L--0----0--0--|--8----8--8--8----8--8--|

E E E E E E E E Q E E Q E E
 
 ----------------------------------|------------------------|
 ----------------------------------|------------------------|
 ---------------------------x---x--|------------------------|
 --10--10--10--10--10--10---x---x--|--0----0--0--0----0--0--|
 --10--10--10--10--10--10---x---x--|--0----0--0--0----0--0--|
 --10--10--10--10--10--10----------|--0----0--0--0----0--0--|

E E E E Q E E Q E E Q E E
 
 -------------------------|------------------------|
 -------------------------|------------------------|
 -------------------------|------------------------|
 --L--0--0--L--0----0--0--|--8----8--8--8----8--8--|
 --L--0--0--L--0----0--0--|--8----8--8--8----8--8--|
 --L--0--0--L--0----0--0--|--8----8--8--8----8--8--|

E E E E Q E E Q E E Q E E
 
 ------------------------------|------------------------|
 ------------------------------|------------------------|
 ------------------------------|------------------------|
 --L--10--10--L--10----10--10--|--8----8--8--8----8--8--|
 --L--10--10--L--10----10--10--|--8----8--8--8----8--8--|
 --L--10--10--L--10----10--10--|--8----8--8--8----8--8--|

E E E E Q E E Q E E Q E E
 
 -------------------------|------------------------------|
 -------------------------|------------------------------|
 -------------------------|------------------------------|
 --L--8--8--L--8----8--8--|--10----10--10--10----10--10--|
 --L--8--8--L--8----8--8--|--10----10--10--10----10--10--|
 --L--8--8--L--8----8--8--|--10----10--10--10----10--10--|

[E] [E] [E] [E] [E] [E] [E] [E] [E] [E] [E] [E] [E] [E] [E] [E]  
 
 ----------------------------|--------------------------|
 ----------------------------|--------------------------|
 ---------------------x---x--|--------------------------|
 --7--7--7--7--7--7---x---x--|--0--0-----0--8-----0--0--|
 --7--7--7--7--7--7---x---x--|--0--0-----0--8-----0--0--|
 --7--7--7--7--7--7----------|--0--0-----0--8-----0--0--|

[E] [E] [E] [E] [E] [E] [E] [E] [E] [E] [E] [E] [E] [E] [E] [E]  
 
 ---------------------------|--------------------------|
 ---------------------------|--------------------------|
 ---------------------------|--------------------------|
 -----0--10-----0--8-----0--|--0-----0--7-----0--0--0--|
 -----0--10-----0--8-----0--|--0-----0--7-----0--0--0--|
 -----0--10-----0--8-----0--|--0-----0--7-----0--0--0--|

E E E E E E E E W W
 
 --------------------------|-------------------|-------------------|
 --------------------------|-------------------|-------------------|
 --------------------------|-------------------|-------------------|
 --8--7--0--5--0--5--7--3--|--0----------------|--L----------------|
 --8--7--0--5--0--5--7--3--|--0----------------|--L----------------|
 --8--7--0--5--0--5--7--3--|--0----------------|--L----------------|

W W E E E E E E E E
 
 -------------------|-------------------|--------------------------|
 -------------------|-------------------|--------------------------|
 -------------------|-------------------|--------------------------|
 --L----------------|--L----------------|--8--8--8--8--8--8--8--8--|
 --L----------------|--L----------------|--8--8--8--8--8--8--8--8--|
 --L----------------|--L----------------|--8--8--8--8--8--8--8--8--|

[E] [E] [E] [E] [E] [E] [E] [E] [E] [E] [E] [E] [E] [E] [E] [E]  
 
 --------------------------|--------------------------|
 --------------------------|--------------------------|
 --------------------------|--7--7--7--7--7--7--7--7--|
 --5--5--5--5--5--5--5--5--|--7--7--7--7--7--7--7--7--|
 --5--5--5--5--5--5--5--5--|--5--5--5--5--5--5--5--5--|
 --5--5--5--5--5--5--5--5--|--------------------------|

[E] [E] [E] [E] [E] [E] [E] [E] [E] [E] [E] [E] [E] [E] [E] [E]  
 
 --------------------------|--------------------------|
 --------------------------|--------------------------|
 --7--7--7--7--7--7--7--7--|--7--7--7--7--7--7--7--7--|
 --7--7--7--7--7--7--7--7--|--7--7--7--7--7--7--7--7--|
 --5--5--5--5--5--5--5--5--|--5--5--5--5--5--5--5--5--|
 --------------------------|--------------------------|

[E] [E] [E] [E] [E] [E] [E] [E] [E] [E] [E] [E] [E] [E] [E] [E]  
 
 --------------------------|--------------------------|
 --------------------------|--------------------------|
 --7--7--7--7--7--7--7--7--|--7--7--7--7--7--7--7--7--|
 --7--7--7--7--7--7--7--7--|--7--7--7--7--7--7--7--7--|
 --5--5--5--5--5--5--5--5--|--5--5--5--5--5--5--5--5--|
 --------------------------|--------------------------|

[E] [E] [E] [E] [E] [E] [E] [E] [E] [E] [E] [E] [E] [E] [E] [E]  
 
 --------------------------|--------------------------|
 --------------------------|--------------------------|
 --7--7--7--7--7--7--7--7--|--------------------------|
 --7--7--7--7--7--7--7--7--|--8--8--8--8--8--8--8--8--|
 --5--5--5--5--5--5--5--5--|--8--8--8--8--8--8--8--8--|
 --------------------------|--8--8--8--8--8--8--8--8--|

[E] [E] [E] [E] [E] [E] [E] [E] [E] [E] [E] [E] [E] [E] [E] [E]  
 
 --------------------------|--------------------------|
 --------------------------|--------------------------|
 --------------------------|--7--7--7--7--7--7--7--7--|
 --5--5--5--5--5--5--5--5--|--7--7--7--7--7--7--7--7--|
 --5--5--5--5--5--5--5--5--|--5--5--5--5--5--5--5--5--|
 --5--5--5--5--5--5--5--5--|--------------------------|

E E E E E E E E Q E E Q E E E E E E Q E E
 
 --------------------------|------------------------|-------------------------|
 --------------------------|------------------------|-------------------------|
 --7--7--7--7--7--7--7--7--|------------------------|-------------------------|
 --7--7--7--7--7--7--7--7--|--0----0--0--0----0--0--|--L--0--0--L--0----0--0--|
 --5--5--5--5--5--5--5--5--|--0----0--0--0----0--0--|--L--0--0--L--0----0--0--|
 --------------------------|--0----0--0--0----0--0--|--L--0--0--L--0----0--0--|

Q E E Q E E E E E E Q E E
 
 ------------------------|------------------------------|
 ------------------------|------------------------------|
 ------------------------|------------------------------|
 --8----8--8--8----8--8--|--L--10--10--L--10----10--10--|
 --8----8--8--8----8--8--|--L--10--10--L--10----10--10--|
 --8----8--8--8----8--8--|--L--10--10--L--10----10--10--|

Q E E Q E E E E E E Q E E Q E E Q E E
 
 ------------------------|-------------------------|------------------------|
 ------------------------|-------------------------|------------------------|
 ------------------------|-------------------------|------------------------|
 --0----0--0--0----0--0--|--L--0--0--L--0----0--0--|--8----8--8--8----8--8--|
 --0----0--0--0----0--0--|--L--0--0--L--0----0--0--|--8----8--8--8----8--8--|
 --0----0--0--0----0--0--|--L--0--0--L--0----0--0--|--8----8--8--8----8--8--|

E E E E E E E E Q E E Q E E
 
 ----------------------------------|------------------------|
 ----------------------------------|------------------------|
 ---------------------------x---x--|------------------------|
 --10--10--10--10--10--10---x---x--|--0----0--0--0----0--0--|
 --10--10--10--10--10--10---x---x--|--0----0--0--0----0--0--|
 --10--10--10--10--10--10----------|--0----0--0--0----0--0--|

E E E E Q E E Q E E Q E E
 
 -------------------------|------------------------|
 -------------------------|------------------------|
 -------------------------|------------------------|
 --L--0--0--L--0----0--0--|--8----8--8--8----8--8--|
 --L--0--0--L--0----0--0--|--8----8--8--8----8--8--|
 --L--0--0--L--0----0--0--|--8----8--8--8----8--8--|

E E E E Q E E Q E E Q E E
 
 ------------------------------|------------------------|
 ------------------------------|------------------------|
 ------------------------------|------------------------|
 --L--10--10--L--10----10--10--|--8----8--8--8----8--8--|
 --L--10--10--L--10----10--10--|--8----8--8--8----8--8--|
 --L--10--10--L--10----10--10--|--8----8--8--8----8--8--|

E E E E Q E E Q E E Q E E
 
 -------------------------|------------------------------|
 -------------------------|------------------------------|
 -------------------------|------------------------------|
 --L--8--8--L--8----8--8--|--10----10--10--10----10--10--|
 --L--8--8--L--8----8--8--|--10----10--10--10----10--10--|
 --L--8--8--L--8----8--8--|--10----10--10--10----10--10--|

E E E E E E E E W W
 
 ----------------------------|-------------------|-------------------|
 ----------------------------|-------------------|-------------------|
 ---------------------x---x--|-------------------|-------------------|
 --7--7--7--7--7--7---x---x--|--0----------------|--L----------------|
 --7--7--7--7--7--7---x---x--|--0----------------|--L----------------|
 --7--7--7--7--7--7----------|--0----------------|--L----------------|

W H E E E E E E E E E E E E
 
 -------------------|-----------------------|--------------------------|-----|
 -------------------|-----------------------|--------------------------|-----|
 -------------------|-----------7--7--7--7--|--7-----------------------|-----|
 --L----------------|--L--------7--7--7--7--|--7-----------------------|-----|
 --L----------------|--L--------5--5--5--5--|--5-----------------------|-----|
 --L----------------|--L--------------------|--------------------------|-----|

[E] [E] [E] [E] [E] [E] [E] [E] [E] [E] [E] [E] [E] [E] [E] [E]  
 
 ----------------------------------|----------------------------------|
 ----------------------------------|----------------------------------|
 --10--10--10--12--12--12--10--10--|--10---9---9---9--10--10---9---9--|
 --12--12--12--14--14--14--12--12--|--12--10--10--10--12--12--10--10--|
 ----------------------------------|----------------------------------|
 ----------------------------------|----------------------------------|

Q E E Q E E E E E E Q E E E E E E E E E E
 
 ------------------------|-------------------------|--------------------------|
 ------------------------|-------------------------|--------------------------|
 ------------------------|-------------------------|--------------------------|
 --8----8--8--8----8--8--|--L--8--8--L--8----8--8--|--0--0-----0--8-----0--0--|
 --8----8--8--8----8--8--|--L--8--8--L--8----8--8--|--0--0-----0--8-----0--0--|
 --8----8--8--8----8--8--|--L--8--8--L--8----8--8--|--0--0-----0--8-----0--0--|

E E E E E E E E Q E E Q E E E E E E Q E E
 
 ----------------------------|------------------------|-------------------------|
 ----------------------------|------------------------|-------------------------|
 ----------------------------|------------------------|-------------------------|
 -----0--10-----0--10--8--7--|--8----8--8--8----8--8--|--L--8--8--L--8----8--8--|
 -----0--10-----0--10--8--7--|--8----8--8--8----8--8--|--L--8--8--L--8----8--8--|
 -----0--10-----0--10--8--7--|--8----8--8--8----8--8--|--L--8--8--L--8----8--8--|

PM PM PM PM
[E] [E] [E] [E] [E] [E] [E] [E] [E] [E] [E] [E] [E] [E] [E] [E]  
 
 -------------------------------|--------------------------|
 -------------------------------|--------------------------|
 -------------------------------|--------------------------|
 --8--10--10--10--10--10--7--7--|--L--7--7--L--8--7--5--7--|
 --8--10--10--10--10--10--7--7--|--L--7--7--L--8--7--5--7--|
 --8--10--10--10--10--10--7--7--|--L--7--7--L--8--7--5--7--|

Q E E Q E E E E E E Q E E Q E E Q E E
 
 ------------------------|-------------------------|------------------------|
 ------------------------|-------------------------|------------------------|
 ------------------------|-------------------------|------------------------|
 --0----0--0--0----0--0--|--L--0--0--L--0----0--0--|--8----8--8--8----8--8--|
 --0----0--0--0----0--0--|--L--0--0--L--0----0--0--|--8----8--8--8----8--8--|
 --0----0--0--0----0--0--|--L--0--0--L--0----0--0--|--8----8--8--8----8--8--|

E E E E Q E E Q E E Q E E
 
 ------------------------------|------------------------|
 ------------------------------|------------------------|
 ------------------------------|------------------------|
 --L--10--10--L--10----10--10--|--0----0--0--0----0--0--|
 --L--10--10--L--10----10--10--|--0----0--0--0----0--0--|
 --L--10--10--L--10----10--10--|--0----0--0--0----0--0--|

E E E E Q E E Q E E Q E E
 
 -------------------------|------------------------|
 -------------------------|------------------------|
 -------------------------|------------------------|
 --L--0--0--L--0----0--0--|--8----8--8--8----8--8--|
 --L--0--0--L--0----0--0--|--8----8--8--8----8--8--|
 --L--0--0--L--0----0--0--|--8----8--8--8----8--8--|

E E E E E E E E Q E E Q E E
 
 -------------------------------|------------------------|
 -------------------------------|------------------------|
 -------------------------------|------------------------|
 --10--10--10--10--10-----------|--0----0--0--0----0--0--|
 --10--10--10--10--10-----------|--0----0--0--0----0--0--|
 --10--10--10--10--10-----------|--0----0--0--0----0--0--|

E E E E Q E E Q E E Q E E
 
 -------------------------|------------------------|
 -------------------------|------------------------|
 -------------------------|------------------------|
 --L--0--0--L--0----0--0--|--8----8--8--8----8--8--|
 --L--0--0--L--0----0--0--|--8----8--8--8----8--8--|
 --L--0--0--L--0----0--0--|--8----8--8--8----8--8--|

E E E E Q E E Q E E Q E E
 
 ------------------------------|------------------------|
 ------------------------------|------------------------|
 ------------------------------|------------------------|
 --L--10--10--L--10----10--10--|--8----8--8--8----8--8--|
 --L--10--10--L--10----10--10--|--8----8--8--8----8--8--|
 --L--10--10--L--10----10--10--|--8----8--8--8----8--8--|

E E E E Q E E Q E E Q E E
 
 -------------------------|------------------------------|
 -------------------------|------------------------------|
 -------------------------|------------------------------|
 --L--8--8--L--8----8--8--|--10----10--10--10----10--10--|
 --L--8--8--L--8----8--8--|--10----10--10--10----10--10--|
 --L--8--8--L--8----8--8--|--10----10--10--10----10--10--|

[E] [E] [E] [E] [E] [E] [E] [E] [E] [E] [E] [E] [E] [E] [E] [E]  
 
 ----------------------------|--------------------------|
 ----------------------------|--------------------------|
 ---------------------x---x--|--------------------------|
 --7--7--7--7--7--7---x---x--|--0--0-----0--8-----0--0--|
 --7--7--7--7--7--7---x---x--|--0--0-----0--8-----0--0--|
 --7--7--7--7--7--7----------|--0--0-----0--8-----0--0--|

[E] [E] [E] [E] [E] [E] [E] [E] [E] [E] [E] [E] [E] [E] [E] [E]  
 
 ---------------------------|--------------------------|
 ---------------------------|--------------------------|
 ---------------------------|--------------------------|
 -----0--10-----0--8-----0--|--0-----0--7-----0--0--0--|
 -----0--10-----0--8-----0--|--0-----0--7-----0--0--0--|
 -----0--10-----0--8-----0--|--0-----0--7-----0--0--0--|

[E] [E] [E] [E] [E] [E] [E] [E] [E] [E] [E] [E] [E] [E] [E] [E]  
 
 ---------------------------|--------------------------|
 ---------------------------|--------------------------|
 ---------------------------|--------------------------|
 --0--8--8--0--8--10--0--3--|--0--0-----0--8-----0--0--|
 --0--8--8--0--8--10--0--3--|--0--0-----0--8-----0--0--|
 --0--8--8--0--8--10--0--3--|--0--0-----0--8-----0--0--|

[E] [E] [E] [E] [E] [E] [E] [E] [E] [E] [E] [E] [E] [E] [E] [E]  
 
 ---------------------------|--------------------------|
 ---------------------------|--------------------------|
 ---------------------------|--------------------------|
 -----0--10-----0--8-----0--|--0-----0--7-----0--0--0--|
 -----0--10-----0--8-----0--|--0-----0--7-----0--0--0--|
 -----0--10-----0--8-----0--|--0-----0--7-----0--0--0--|

E E E E E E E E W W
 
 --------------------------|-------------------|-------------------|
 --------------------------|-------------------|-------------------|
 --------------------------|-------------------|-------------------|
 --8--7--0--5--0--5--7--3--|--0----------------|--L----------------|
 --8--7--0--5--0--5--7--3--|--0----------------|--L----------------|
 --8--7--0--5--0--5--7--3--|--0----------------|--L----------------|

W W
 
 -------------------|-------------------||
 -------------------|-------------------||
 -------------------|-------------------||
 --L----------------|--L----------------||
 --L----------------|--L----------------||
 --L----------------|--L----------------||

Guitar 2
[E] [E] [E] [E] [E] [E] [E] [E] [E] [E] [E] [E] [E] [E] [E] [E]  
 
 D||--------------------------|---------------------------|
 A||--------------------------|---------------------------|
 F||--------------------------|---------------------------|
 C||--0--0-----0--8-----0--0--|-----0--10-----0--8-----0--|
 G||--0--0-----0--8-----0--0--|-----0--10-----0--8-----0--|
 C||--0--0-----0--8-----0--0--|-----0--10-----0--8-----0--|

[E] [E] [E] [E] [E] [E] [E] [E] [E] [E] [E] [E] [E] [E] [E] [E]  
 
 --------------------------|---------------------------|
 --------------------------|---------------------------|
 --------------------------|---------------------------|
 --0-----0--7-----0--0--0--|--0--8--8--0--8--10--0--3--|
 --0-----0--7-----0--0--0--|--0--8--8--0--8--10--0--3--|
 --0-----0--7-----0--0--0--|--0--8--8--0--8--10--0--3--|

[E] [E] [E] [E] [E] [E] [E] [E] [E] [E] [E] [E] [E] [E] [E] [E]  
 
 --------------------------|---------------------------|
 --------------------------|---------------------------|
 --------------------------|---------------------------|
 --0--0-----0--8-----0--0--|-----0--10-----0--8-----0--|
 --0--0-----0--8-----0--0--|-----0--10-----0--8-----0--|
 --0--0-----0--8-----0--0--|-----0--10-----0--8-----0--|

[E] [E] [E] [E] [E] [E] [E] [E] [E] [E] [E] [E] [E] [E] [E] [E]  
 
 --------------------------|--------------------------|
 --------------------------|--------------------------|
 --------------------------|--------------------------|
 --0-----0--7-----0--0--0--|--8--7--0--5--0--5--7--3--|
 --0-----0--7-----0--0--0--|--8--7--0--5--0--5--7--3--|
 --0-----0--7-----0--0--0--|--8--7--0--5--0--5--7--3--|

[E] [E] [E] [E] [E] [E] [E] [E] [E] [E] [E] [E] [E] [E] [E] [E]  
 
 -----------------0--------------|-----------------0--------------|
 ---------13---------13------13--|--L------13---------13------13--|
 -----10------10---------10------|-----10------10---------10------|
 --0-----------------------------|--------------------------------|
 --------------------------------|--------------------------------|
 --------------------------------|--------------------------------|

[E] [E] [E] [E] [E] [E] [E] [E] [E] [E] [E] [E] [E] [E] [E] [E]  
 
 -----------------0--------------|-----------------0--------------|
 ---------12---------12------12--|--L------12---------12------12--|
 -----10------10---------10------|-----10------10---------10------|
 --0-----------------------------|--------------------------------|
 --------------------------------|--------------------------------|
 --------------------------------|--------------------------------|

[E] [E] [E] [E] [E] [E] [E] [E] [E] [E] [E] [E] [E] [E] [E] [E]  
 
 ---------------0------------|--------------------0-----|
 --------10--------10--------|--------6-----8--------6--|
 -----7------7---------7-----|-----7-----7-----7--------|
 --8----------------------5--|--L-----------------------|
 ----------------------------|--------------------------|
 ----------------------------|--------------------------|

[E] [E] [E] [E] [E] [E] [E] [E] [E] [E] [E] [E] [E] [E] [E] [E]  
 
 -----------------0--------------|-----------------0--------------|
 ---------13---------13------13--|--L------13---------13------13--|
 -----10------10---------10------|-----10------10---------10------|
 --0-----------------------------|--------------------------------|
 --------------------------------|--------------------------------|
 --------------------------------|--------------------------------|

[E] [E] [E] [E] [E] [E] [E] [E] [E] [E] [E] [E] [E] [E] [E] [E]  
 
 -----------------0--------------|-----------------0--------------|
 ---------13---------13------13--|--L------13---------13------13--|
 -----10------10---------10------|-----10------10---------10------|
 --0-----------------------------|--------------------------------|
 --------------------------------|--------------------------------|
 --------------------------------|--------------------------------|

[E] [E] [E] [E] [E] [E] [E] [E] [E] [E] [E] [E] [E] [E] [E] [E]  
 
 -----------------0--------------|-----------------0--------------|
 ---------12---------12------12--|--L------12---------12------12--|
 -----10------10---------10------|-----10------10---------10------|
 --0-----------------------------|--------------------------------|
 --------------------------------|--------------------------------|
 --------------------------------|--------------------------------|

[E] [E] [E] [E] [E] [E] [E] [E] [E] [E] [E] [E] [E] [E] [E] [E]  
 
 ---------------0------------|--------------------0-----|
 --------10--------10--------|--------6-----8--------6--|
 -----7------7---------7-----|-----7-----7-----7--------|
 --8----------------------5--|--L-----------------------|
 ----------------------------|--------------------------|
 ----------------------------|--------------------------|

[E] [E] [E] [E] [E] [E] [E] [E] [E] [E] [E] [E] [E] [E] [E] [E]  
 
 -----------------0--------------|-----------------0--------------|
 ---------13---------13------13--|--L------13---------13------13--|
 -----10------10---------10------|-----10------10---------10------|
 --0-----------------------------|--------------------------------|
 --------------------------------|--------------------------------|
 --------------------------------|--------------------------------|

[E] [E] [E] [E] [E] [E] [E] [E] [E] [E] [E] [E] [E] [E] [E] [E]  
 
 -----------------0--------------|-----------------0--------------|
 ---------13---------13------13--|--L------13---------13------13--|
 -----10------10---------10------|-----10------10---------10------|
 --0-----------------------------|--------------------------------|
 --------------------------------|--------------------------------|
 --------------------------------|--------------------------------|

[E] [E] [E] [E] [E] [E] [E] [E] [E] [E] [E] [E] [E] [E] [E] [E]  
 
 -----------------0--------------|-----------------0--------------|
 ---------12---------12------12--|--L------12---------12------12--|
 -----10------10---------10------|-----10------10---------10------|
 --0-----------------------------|--------------------------------|
 --------------------------------|--------------------------------|
 --------------------------------|--------------------------------|

[E] [E] [E] [E] [E] [E] [E] [E] [E] [E] [E] [E] [E] [E] [E] [E]  
 
 ---------------0------------|--------------------0-----|
 --------10--------10--------|--------6-----8--------6--|
 -----7------7---------7-----|-----7-----7-----7--------|
 --8----------------------5--|--L-----------------------|
 ----------------------------|--------------------------|
 ----------------------------|--------------------------|

[E] [E] [E] [E] [E] [E] [E] [E] [E] [E] [E] [E] [E] [E] [E] [E]  
 
 -----------------0--------------|-----------------0--------------|
 ---------13---------13------13--|--L------13---------13------13--|
 -----10------10---------10------|-----10------10---------10------|
 --0-----------------------------|--------------------------------|
 --------------------------------|--------------------------------|
 --------------------------------|--------------------------------|

Q E E E E E E E E Q E E E E
 
 ------------------------------|-------------------------------|
 ------------------------------|-----10--10----10--11--11--11--|
 --7----7--10--10--12--12--12--|--L---x---x-----x---x---x---x--|
 --x----x---x---x---x---x---x--|------7---7-----7---8---8---8--|
 --5----5---8---8--10--10--10--|--L----------------------------|
 ------------------------------|-------------------------------|

Q E E Q E E E E E E Q E E
 
 ------------------------------|------------------------------|
 ------------------------------|------------------------------|
 --10----10--10--10----10--10--|--L--12--12--L--12----12--12--|
 ---x-----x---x---x-----x---x--|--L---x---x--L---x-----x---x--|
 ---8-----8---8---8-----8---8--|--L--10--10--L--10----10--10--|
 ------------------------------|------------------------------|

Q E E E E E E E E Q E E E E
 
 ------------------------------|-------------------------------|
 ------------------------------|-----10--10----10--11--11--11--|
 --7----7--10--10--12--12--12--|--L---x---x-----x---x---x---x--|
 --x----x---x---x---x---x---x--|------7---7-----7---8---8---8--|
 --5----5---8---8--10--10--10--|--L----------------------------|
 ------------------------------|-------------------------------|

Q E E Q E E E E E E E E E E
 
 ------------------------------|----------------------------------|
 ------------------------------|----------------------------------|
 --10----10--10--10----10--10--|--12--12--12--12--12--12---x---x--|
 ---x-----x---x---x-----x---x--|---x---x---x---x---x---x---x---x--|
 ---8-----8---8---8-----8---8--|--10--10--10--10--10--10---x---x--|
 ------------------------------|----------------------------------|

Q E E E E E E E E Q E E E E
 
 ------------------------------|-------------------------------|
 ------------------------------|-----10--10----10--11--11--11--|
 --7----7--10--10--12--12--12--|--L---x---x-----x---x---x---x--|
 --x----x---x---x---x---x---x--|------7---7-----7---8---8---8--|
 --5----5---8---8--10--10--10--|--L----------------------------|
 ------------------------------|-------------------------------|

Q E Q E E E E E E E E E E E
 
 ---------------------------|---------------------------------|
 ---------------------------|---------------------------------|
 --10----10--9----9--9--12--|---L--12--12--12--12--10--9--10--|
 ---x-----x--x----x--x---x--|-------x---x---x---x---x--x---x--|
 ---8-----8--7----7--7--10--|---L--10--10--10--10---8--7---8--|
 ---------------------------|---------------------------------|

Q E Q E Q E Q E Q Q Q E Q E Q
 
 -----------------------|------------------------|-----------------------|
 -----------------------|------------------------|-----------------------|
 --7----7--5----5--7----|--7--5----5--9----10----|--5----5--7----7--9----|
 --x----x--x----x--x----|--x--x----x--x-----x----|--x----x--x----x--x----|
 --5----5--3----3--5----|--5--3----3--7-----8----|--3----3--5----5--7----|
 -----------------------|------------------------|-----------------------|

E Q E Q Q E E E E E E E E E E E E E E E E
 
 ------------------------|--------------------------|---------------------------|
 ------------------------|--------------------------|---------------------------|
 --9--5----5--9----10----|--------------------------|---------------------------|
 --x--x----x--x-----x----|--0--0-----0--8-----0--0--|-----0--10-----0--8-----0--|
 --7--3----3--7-----8----|--0--0-----0--8-----0--0--|-----0--10-----0--8-----0--|
 ------------------------|--0--0-----0--8-----0--0--|-----0--10-----0--8-----0--|

[E] [E] [E] [E] [E] [E] [E] [E] [E] [E] [E] [E] [E] [E] [E] [E]  
 
 --------------------------|--------------------------|
 --------------------------|--------------------------|
 --------------------------|--------------------------|
 --0-----0--7-----0--0--0--|--8--7--0--5--0--5--7--3--|
 --0-----0--7-----0--0--0--|--8--7--0--5--0--5--7--3--|
 --0-----0--7-----0--0--0--|--8--7--0--5--0--5--7--3--|

[E] [E] [E] [E] [E] [E] [E] [E] [E] [E] [E] [E] [E] [E] [E] [E]  
 
 -----------------0--------------|-----------------0--------------|
 ---------13---------13------13--|--L------13---------13------13--|
 -----10------10---------10------|-----10------10---------10------|
 --0-----------------------------|--------------------------------|
 --------------------------------|--------------------------------|
 --------------------------------|--------------------------------|

[E] [E] [E] [E] [E] [E] [E] [E] [E] [E] [E] [E] [E] [E] [E] [E]  
 
 -----------------0--------------|-----------------0--------------|
 ---------12---------12------12--|--L------12---------12------12--|
 -----10------10---------10------|-----10------10---------10------|
 --0-----------------------------|--------------------------------|
 --------------------------------|--------------------------------|
 --------------------------------|--------------------------------|

[E] [E] [E] [E] [E] [E] [E] [E] [E] [E] [E] [E] [E] [E] [E] [E]  
 
 ---------------0------------|--------------------0-----|
 --------10--------10--------|--------6-----8--------6--|
 -----7------7---------7-----|-----7-----7-----7--------|
 --8----------------------5--|--L-----------------------|
 ----------------------------|--------------------------|
 ----------------------------|--------------------------|

[E] [E] [E] [E] [E] [E] [E] [E] [E] [E] [E] [E] [E] [E] [E] [E]  
 
 -----------------0--------------|-----------------0--------------|
 ---------13---------13------13--|--L------13---------13------13--|
 -----10------10---------10------|-----10------10---------10------|
 --0-----------------------------|--------------------------------|
 --------------------------------|--------------------------------|
 --------------------------------|--------------------------------|

[E] [E] [E] [E] [E] [E] [E] [E] [E] [E] [E] [E] [E] [E] [E] [E]  
 
 -----------------0--------------|-----------------0--------------|
 ---------13---------13------13--|--L------13---------13------13--|
 -----10------10---------10------|-----10------10---------10------|
 --0-----------------------------|--------------------------------|
 --------------------------------|--------------------------------|
 --------------------------------|--------------------------------|

[E] [E] [E] [E] [E] [E] [E] [E] [E] [E] [E] [E] [E] [E] [E] [E]  
 
 -----------------0--------------|-----------------0--------------|
 ---------12---------12------12--|--L------12---------12------12--|
 -----10------10---------10------|-----10------10---------10------|
 --0-----------------------------|--------------------------------|
 --------------------------------|--------------------------------|
 --------------------------------|--------------------------------|

[E] [E] [E] [E] [E] [E] [E] [E] [E] [E] [E] [E] [E] [E] [E] [E]  
 
 ---------------0------------|--------------------0-----|
 --------10--------10--------|--------6-----8--------6--|
 -----7------7---------7-----|-----7-----7-----7--------|
 --8----------------------5--|--L-----------------------|
 ----------------------------|--------------------------|
 ----------------------------|--------------------------|

[E] [E] [E] [E] [E] [E] [E] [E] [E] [E] [E] [E] [E] [E] [E] [E]  
 
 -----------------0--------------|-----------------0--------------|
 ---------13---------13------13--|--L------13---------13------13--|
 -----10------10---------10------|-----10------10---------10------|
 --0-----------------------------|--------------------------------|
 --------------------------------|--------------------------------|
 --------------------------------|--------------------------------|

Q E E E E E E E E Q E E E E
 
 ------------------------------|-------------------------------|
 ------------------------------|-----10--10----10--11--11--11--|
 --7----7--10--10--12--12--12--|--L---x---x-----x---x---x---x--|
 --x----x---x---x---x---x---x--|------7---7-----7---8---8---8--|
 --5----5---8---8--10--10--10--|--L----------------------------|
 ------------------------------|-------------------------------|

Q E E Q E E E E E E Q E E
 
 ------------------------------|------------------------------|
 ------------------------------|------------------------------|
 --10----10--10--10----10--10--|--L--12--12--L--12----12--12--|
 ---x-----x---x---x-----x---x--|--L---x---x--L---x-----x---x--|
 ---8-----8---8---8-----8---8--|--L--10--10--L--10----10--10--|
 ------------------------------|------------------------------|

Q E E E E E E E E Q E E E E
 
 ------------------------------|-------------------------------|
 ------------------------------|-----10--10----10--11--11--11--|
 --7----7--10--10--12--12--12--|--L---x---x-----x---x---x---x--|
 --x----x---x---x---x---x---x--|------7---7-----7---8---8---8--|
 --5----5---8---8--10--10--10--|--L----------------------------|
 ------------------------------|-------------------------------|

Q E E Q E E E E E E E E E E
 
 ------------------------------|----------------------------------|
 ------------------------------|----------------------------------|
 --10----10--10--10----10--10--|--12--12--12--12--12--12---x---x--|
 ---x-----x---x---x-----x---x--|---x---x---x---x---x---x---x---x--|
 ---8-----8---8---8-----8---8--|--10--10--10--10--10--10---x---x--|
 ------------------------------|----------------------------------|

Q E E E E E E E E Q E E E E
 
 ------------------------------|-------------------------------|
 ------------------------------|-----10--10----10--11--11--11--|
 --7----7--10--10--12--12--12--|--L---x---x-----x---x---x---x--|
 --x----x---x---x---x---x---x--|------7---7-----7---8---8---8--|
 --5----5---8---8--10--10--10--|--L----------------------------|
 ------------------------------|-------------------------------|

Q E Q E E E E E E E E E E E
 
 ---------------------------|---------------------------------|
 ---------------------------|---------------------------------|
 --10----10--9----9--9--12--|---L--12--12--12--12--10--9--10--|
 ---x-----x--x----x--x---x--|-------x---x---x---x---x--x---x--|
 ---8-----8--7----7--7--10--|---L--10--10--10--10---8--7---8--|
 ---------------------------|---------------------------------|

Q E Q E Q E Q E Q Q Q E Q E Q
 
 -----------------------|------------------------|-----------------------|
 -----------------------|------------------------|-----------------------|
 --7----7--5----5--7----|--7--5----5--9----10----|--5----5--7----7--9----|
 --x----x--x----x--x----|--x--x----x--x-----x----|--x----x--x----x--x----|
 --5----5--3----3--5----|--5--3----3--7-----8----|--3----3--5----5--7----|
 -----------------------|------------------------|-----------------------|

PM PM PM PM PM
E Q E Q Q E E E E E E E E
 
 ------------------------|-----------------------------|
 ------------------------|--10--------10--------10-----|
 --9--5----5--9----10----|--10--------10--------10-----|
 --x--x----x--x-----x----|------0--0------0--0------0--|
 --7--3----3--7-----8----|-----------------------------|
 ------------------------|-----------------------------|

PM PM PM PM PM PM PM PM PM PM
[E] [E] [E] [E] [E] [E] [E] [E] [E] [E] [E] [E] [E] [E] [E] [E]  
 
 ----------------------------|--------------------------|
 -----10---------8-----6-----|--5--------5--------6-----|
 -----10--------10-----7-----|--5--------5--------7-----|
 --0------0--0------0-----0--|-----0--0-----0--0-----0--|
 ----------------------------|--------------------------|
 ----------------------------|--------------------------|

PM PM PM PM PM PM PM PM PM
[E] [E] [E] [E] [E] [E] [E] [E] [E] [E] [E] [E] [E] [E] [E] [E]  
 
 ---------------------------|-----------------------------|
 -----6--------5-----6---8--|--10--------10--------10-----|
 -----7--------5-----7--10--|--10--------10--------10-----|
 --0-----0--0-----0---------|------0--0------0--0------0--|
 ---------------------------|-----------------------------|
 ---------------------------|-----------------------------|

PM PM PM PM PM PM PM PM PM PM
[E] [E] [E] [E] [E] [E] [E] [E] [E] [E] [E] [E] [E] [E] [E] [E]  
 
 ----------------------------|----------------------------|
 ------8---------8-----6-----|--11--------11--------6-----|
 -----10--------10-----7-----|--12--------12--------7-----|
 --0------0--0------0-----0--|------0--0------0--0-----0--|
 ----------------------------|----------------------------|
 ----------------------------|----------------------------|

PM PM PM PM PM
E E E E E E E E H Q Q W
 
 --------------------------|------------------10----|--L----------------|
 -----5--------6-----5-----|--11---------L----------|-------------------|
 -----5--------7-----5-----|------------------------|-------------------|
 --0-----0--0-----0-----0--|------------------------|-------------------|
 --------------------------|------------------------|-------------------|
 --------------------------|------------------------|-------------------|

W W H Q Q
 
 --L----------------|--L----------------|------------------10----|
 -------------------|-------------------|--11---------L----------|
 -------------------|-------------------|------------------------|
 -------------------|-------------------|------------------------|
 -------------------|-------------------|------------------------|
 -------------------|-------------------|------------------------|

W Q E Q E Q H H
 
 --L----------------|--12----L-----------9----|--L------------------|
 -------------------|-----------10----L-------|-----------10--------|
 -------------------|-------------------------|---------------------|
 -------------------|-------------------------|---------------------|
 -------------------|-------------------------|---------------------|
 -------------------|-------------------------|---------------------|

Q E E E E E E E E Q E E E E
 
 ------------------------------|-------------------------------|
 ------------------------------|-----10--10----10--11--11--11--|
 --7----7--10--10--12--12--12--|--L---x---x-----x---x---x---x--|
 --x----x---x---x---x---x---x--|------7---7-----7---8---8---8--|
 --5----5---8---8--10--10--10--|--L----------------------------|
 ------------------------------|-------------------------------|

Q E E Q E E E E E E Q E E
 
 ------------------------------|------------------------------|
 ------------------------------|------------------------------|
 --10----10--10--10----10--10--|--L--12--12--L--12----12--12--|
 ---x-----x---x---x-----x---x--|--L---x---x--L---x-----x---x--|
 ---8-----8---8---8-----8---8--|--L--10--10--L--10----10--10--|
 ------------------------------|------------------------------|

Q E E E E E E E E Q E E E E
 
 ------------------------------|-------------------------------|
 ------------------------------|-----10--10----10--11--11--11--|
 --7----7--10--10--12--12--12--|--L---x---x-----x---x---x---x--|
 --x----x---x---x---x---x---x--|------7---7-----7---8---8---8--|
 --5----5---8---8--10--10--10--|--L----------------------------|
 ------------------------------|-------------------------------|

Q E E Q E E E E E E E E E E
 
 ------------------------------|-------------------------------|
 ------------------------------|-------------------------------|
 --10----10--10--10----10--10--|--12--12--12--12--12-----------|
 ---x-----x---x---x-----x---x--|---x---x---x---x---x-----------|
 ---8-----8---8---8-----8---8--|--10--10--10--10--10-----------|
 ------------------------------|-------------------------------|

Q E E E E E E E E Q E E E E
 
 ------------------------------|-------------------------------|
 ------------------------------|-----10--10----10--11--11--11--|
 --7----7--10--10--12--12--12--|--L---x---x-----x---x---x---x--|
 --x----x---x---x---x---x---x--|------7---7-----7---8---8---8--|
 --5----5---8---8--10--10--10--|--L----------------

Important: The song above is NOT stored on the Chordie server. The original song is hosted at www.guitaretab.com. Chordie works as a search engine and provides on-the-fly formatting. Chordie does not index songs against artists'/composers' will. To remove this song please click here.

Text color:
Chord color:
Chord grids: 
Font size:    
Page size: 

E
Rate #1 of 2 versions

Jango Player

Login - add to songbook

SHARE PAGE  



You need to log in to post comments