Guitar Tabs, Chords and Lyrics
Update 25:10. 13:00. Site is back up running again. Songbooks are recovered. Woring on getting search back up..


Addio  Finley

Finley ? Addio
Tabbed by Uchiha23
Intro:
 
 G|-8-8-8-8-8-8-8-8-8-|-4-4-4-4-4-4-4-4-4-|-------------------|-6-6-6-6-6-6-6-6-|
 D|-8-8-8-8-8-8-8-8-8-|-4-4-4-4-4-4-4-4-4-|-4-4-4-4-4-4-4-4-4-|-6-6-6-6-6-6-6-6-|
 A|-6-6-6-6-6-6-6-6-6-|-2-2-2-2-2-2-2-2-2-|-4-4-4-4-4-4-4-4-4-|-4-4-4-4-4-4-4-4-|
 E|-------------------|-------------------|-2-2-2-2-2-2-2-2-2-|-----------------|

[Ebm]Non potr mai smett[B]ere
Di pensare a quella [F#]sera
Di tan[C#]ti anni fa [Ebm]
Quando ancora voi per [B]me
Non avevate scelto un [F#]nome
Ed o[C#]ra son [Ebm]qua
Di [B]fronte a queste bug[F#]ie
E a [C#]quegli occhi luci[Ebm]di
Bag[B]nati da colpe [F#]che
Fe[C#]riscono solo me [Ebm]
Non facile per [B]me ma sento [F#]che
(Questo [C#]) un addio [Ebm]
Non facile per [B]me ma sento [F#]che
(Questo [C#]) il mio addi[Ebm]o
Guitar 1:
 
 G|-8-8-8-8-8-8-8-8-8-|-4-4-4-4-4-4-4-4-4-|-------------------|-6-6-6-6-6-6-6-6-|
 D|-8-8-8-8-8-8-8-8-8-|-4-4-4-4-4-4-4-4-4-|-4-4-4-4-4-4-4-4-4-|-6-6-6-6-6-6-6-6-|
 A|-6-6-6-6-6-6-6-6-6-|-2-2-2-2-2-2-2-2-2-|-4-4-4-4-4-4-4-4-4-|-4-4-4-4-4-4-4-4-|
 E|-------------------|-------------------|-2-2-2-2-2-2-2-2-2-|-----------------|

Guitar 2:
 
 G|-10-------11-------|-10-------11-------|-10-------11-------|-10-------11-----|

[Ebm]Grazie a tutti quelli [B]che
Hanno reso un po' pi d[F#]olci
Le d[C#]ifficol[Ebm]t
Di un ragazzo come [B]me
Cosi solo e abbandon[F#]ato
E s[C#]enza piet [Ebm]
Di f[B]ronte a queste bu[F#]gie
E a [C#]quegli occhi lucidi [Ebm]
Io [B]so camminare or[F#]mai
So [C#]farlo senza di voi [Ebm]
Non facile per [B]me ma sento [F#]che
(Questo [C#]) un addio [Ebm]
Non facile per [B]me ma sento [F#]che
(Questo [C#]) il mio addi[Ebm]o
Non po[B]tr piange[F#]re
non pot[C#]r fin[Ebm]gere
Sento [B]che questo[F#]
un ad[C#]dio
il mio ad[Ebm]dio
(With arpeggio)
Ebm ? B ? F# - C#

Important: The song above is NOT stored on the Chordie server. The original song is hosted at www.guitaretab.com. Chordie works as a search engine and provides on-the-fly formatting. Chordie does not index songs against artists'/composers' will. To remove this song please click here.

Text color:
Chord color:
Chord grids: 
Font size:    
Page size: 

B C# Ebm F#
Rate #2 of 3 versions

Jango Player

Login - add to songbook

SHARE PAGE  



You need to log in to post comments