Guitar Tabs, Chords and Lyrics
Server problems seems to be fixed. Chordie has been experiencing problems with songs disappearing. These issues now seems to be fixed, but still verifying the fix. If you find anything strange, please email admin@chordie.com.


Wild Cherry  Foghat

WILD CHERRY
As recorded by Foghat
(From the 1974 Album ENERGIZED)
Words and Music by D.Peverett,R.Price,T.Dawes,R.Earl and A. Stevens
Transcribed by Tone Jone's
Gtr I (E B E G# B E) - 'Gtr.1 Dist Gtr. Open E Tuning'
Gtr II (E A D G B E) - 'Gtr.2 Distortion Gtr.'
Gtr III (E A D G B E) - 'Gtr.3 Distortion Gtr.'
Intro
Fast Rock Q=180
[4/4] Gtr I
Wx6 W W W Wx8
 
 |------------|----------|----------|----------|--------|
 |------------|----------|----------|----------|--------|
 |------------|----------|----------|----------|--------|
 |------------|----------|----------|----------|--------|
 |------------|----------|----------|----------|--------|
 |------------|----------|----------|----------|--------|

Gtr I
~~~~~~~~~~~~
E Q E E E E a E E a Q. +H
 
 |------------------------------------|-----------------------|
 |-10s====11--11--11s===9s=7-10s11----|---10s11------(11)-----|
 |------------------------------------|-----------------------|
 |------------------------------------|-----------------------|
 |------------------------------------|-----------------------|
 |------------------------------------|-----------------------|

|
| Gtr II
| ~~~~~~~~~~~~
| Q. E +E +E E E E Q. +Q Q
 
 |------------------------------------|-----------------------|
 |------------------------------------|-----------------------|
 |-10b11======10r(10)r(10)p8----10b11-|------10b11---(10)-----|
 |------------------------------------|-----------------------|
 |------------------------------------|-----------------------|
 |------------------------------------|-----------------------|

~~~~~~~~~~~
[a] [E] [E] [E] [E] [E] [E] [E] [E] [+B] [+E] [+E] [E] [E]  
 
 |--------------------------------------|-------------------------|
 |-15s16-16-----16-16--16---15-13-16----|-(16)----(16)-(16)s20----|
 |--------------------------------------|-------------------------|
 |--------------------------------------|-------------------------|
 |--------------------------------------|-------------------------|
 |--------------------------------------|-------------------------|

|
| ~~~~~~~~~~~~
| E E E E +E E E E +H. Q
 
 |--------------------------------------|-------------------------|
 |----10-10b12==10-10-(10)r-10--8-10b11-|-(10)--------------------|
 |--------------------------------------|-------------------------|
 |--------------------------------------|-------------------------|
 |--------------------------------------|-------------------------|
 |--------------------------------------|-------------------------|

~~~~~~~~~~~~
a E E E E E E E E E a Q. +Q +E E
 
 |-13s15-----15-15-15-15s=11--11-15----|---13s15------(15)--(15)s20-|
 |-------------------------------------|----------------------------|
 |-------------------------------------|----------------------------|
 |-------------------------------------|----------------------------|
 |-------------------------------------|----------------------------|
 |-------------------------------------|----------------------------|

|
| ~~~~~~~~~~~~
| E E E E E +E E E E Q. +Q Q
 
 |----10b11==10-10-10-10r(10)--8-10b11-|------10b11---(10)----------|
 |-------------------------------------|----------------------------|
 |-------------------------------------|----------------------------|
 |-------------------------------------|----------------------------|
 |-------------------------------------|----------------------------|
 |-------------------------------------|----------------------------|

~~~~~~~~~
E E E E E E E E +H. Q
 
 |-18-----18-18-18-18s=16--15-20-|-(20)---------|
 |-------------------------------|--------------|
 |-------------------------------|--------------|
 |-------------------------------|--------------|
 |-------------------------------|--------------|
 |-------------------------------|--------------|

|
| E E E E E +E E E +H. Q
 
 |-17b18==17-17-17-17r(17)-15-20-|-(20)---------|
 |-------------------------------|--------------|
 |-------------------------------|-----------0--|
 |-------------------------------|--------------|
 |-------------------------------|--------------|
 |-------------------------------|--------------|

Gtr II
E Q E Q E E +E E Q Q Q E E E E E E E E
 
 |---------------|----------------|-------------------------|
 |---3----3----3-|-(3)---3--------|-------------------------|
 |-0----0----0---|-----0----0-----|-------------------------|
 |---------------|----------x-----|-------------------------|
 |---------------|----------x-----|-10-10-12-10-10-10-12-10-|
 |---------------|----------6--7--|--8--8--8--8--8--8--8--8-|

|
| Gtr III
| E Q E Q E E +E E Q Q Q E E E E E E E E
 
 |---------------|----------------|-------------------------|
 |---------------|----------------|-------------------------|
 |-0----0----0---|-----0----------|-------------------------|
 |---------------|----------------|-------------------------|
 |---------------|----------------|-10-10-12-10-10-10-12-10-|
 |---3----3----3-|-(3)---3--6--5--|--8--8--8--8--8--8--8--8-|

Gtrs II, III
[+E] [E] [E] [E] [E] [E] [E] [E] [E] [E] [E] [E] [E] [E] [E] [E]  
 
 |---------------------------|-------------------------|
 |---------------------------|-------------------------|
 |---------------------------|-------------------------|
 |---------------------------|-------------------------|
 |-(10)-10-12-10-10-10-12-10-|-10-10-12-10-13-10-12-10-|
 |--(8)--8--8--8--8--8--8--8-|--8--8--8--8--8--8--8--8-|

[+E] [E] [E] [E] [E] [E] [E] [E]  
 
 |---------------------------||
 |---------------------------||
 |---------------------------||
 |---------------------------||
 |-(10)-10-12-10-10-10-12-10-||
 |--(8)--8--8--8--8--8--8--8-||

Chorus
[E] [E] [E] [E] [E] [E] [E] [E] [+E] [E] [E] [E] [E] [E] [E] [E]  
 
 |-------------------------|---------------------------|
 |-------------------------|---------------------------|
 |-------------------------|---------------------------|
 |-------------------------|---------------------------|
 |-10-10-12-10-10-10-12-10-|-(10)-10-12-10-10-10-12-10-|
 |--8--8--8--8--8--8--8--8-|--(8)--8--8--8--8--8--8--8-|

[E] [E] [E] [E] [E] [E] [E] [E] [+E] [E] [E] [E] [E] [E] [E] [E]  
 
 |-------------------------|---------------------------|
 |-------------------------|---------------------------|
 |-------------------------|---------------------------|
 |-------------------------|---------------------------|
 |-10-10-12-10-10-10-12-10-|-(10)-10-12-10-10-10-12-10-|
 |--8--8--8--8--8--8--8--8-|--(8)--8--8--8--8--8--8--8-|

[E] [E] [E] [E] [E] [E] [E] [E] [+E] [E] [E] [E] [E] [E] [E] [E]  
 
 |-------------------------|---------------------------|
 |-------------------------|---------------------------|
 |-------------------------|---------------------------|
 |-10-10-12-10-10-10-12-10-|-(10)-10-12-10-10-10-12-10-|
 |--8--8--8--8--8--8--8--8-|--(8)--8--8--8--8--8--8--8-|
 |-------------------------|---------------------------|

[E] [E] [E] [E] [E] [E] [E] [E] [+E] [E] [E] [E] [E] [E] [E] [E]  
 
 |-------------------------|---------------------------|
 |-------------------------|---------------------------|
 |-------------------------|---------------------------|
 |-------------------------|---------------------------|
 |-10-10-12-10-10-10-12-10-|-(10)-10-12-10-10-10-12-10-|
 |--8--8--8--8--8--8--8--8-|--(8)--8--8--8--8--8--8--8-|

[E] [E] [E] [E] [E] [E] [E] [E] [E] [E] [E] [E] [E] [E] [E] [E]  
 
 |-------------------------|-------------------------|
 |-------------------------|-------------------------|
 |-------------------------|-------------------------|
 |-12-12-14-12-12-12-14-12-|-12-12-14-12-12-12-14-12-|
 |-10-10-10-10-10-10-10-10-|-10-10-10-10-10-10-10-10-|
 |-------------------------|-------------------------|

[E] [E] [E] [E] [E] [E] [E] [E] [E] [E] [E] [E] [E] [E] [E] [E]  
 
 |-------------------------|-------------------------|
 |-------------------------|-------------------------|
 |-------------------------|-------------------------|
 |-12-12-14-12-12-12-14-12-|-12-12-14-12-12-12-14-12-|
 |-10-10-10-10-10-10-10-10-|-10-10-10-10-10-10-10-10-|
 |-------------------------|-------------------------|

[E] [E] [E] [E] [E] [E] [E] [E] [E] [E] [E] [E] [E] [E] [E] [E]  
 
 |-------------------------|-------------------------|
 |-------------------------|-------------------------|
 |-------------------------|-------------------------|
 |-12-12-14-12-12-12-14-12-|-12-12-14-12-12-12-14-12-|
 |-10-10-10-10-10-10-10-10-|-10-10-10-10-10-10-10-10-|
 |-------------------------|-------------------------|

E E E E E E E E E E E E E E Q
 
 |-------------------------|------------------------|
 |-------------------------|------------------------|
 |-------------------------|------------------------|
 |-12-12-14-12-12-12-14-12-|-12-12-12-12-12-12-12\--|
 |-10-10-10-10-10-10-10-10-|-10-10-10-10-10-10-10\--|
 |-------------------------|------------------------|

[E] [E] [E] [E] [E] [E] [E] [E] [+E] [E] [E] [E] [E] [E] [E] [E]  
 
 |-------------------------|---------------------------|
 |-------------------------|---------------------------|
 |-------------------------|---------------------------|
 |-------------------------|---------------------------|
 |-10-10-12-10-10-10-12-13-|-(13)-10-12-10-10-10-12-10-|
 |--8--8--8--8--8--8--8--8-|--(8)--8--8--8--8--8--8--8-|

[E] [E] [E] [E] [E] [E] [E] [E] [+E] [E] [E] [E] [E] [E] [E] [E]  
 
 |-------------------------|---------------------------||
 |-------------------------|---------------------------||
 |-------------------------|---------------------------||
 |-------------------------|---------------------------||
 |-10-10-12-10-10-10-12-10-|-(10)-10-12-10-10-10-12-10-||
 |--8--8--8--8--8--8--8--8-|--(8)--8--8--8--8--8--8--8-||

Verse
$ $$
|-------------------------|-------------------------|
|-------------------------|-------------------------|
|-------------------------|-------------------------|
|-------------------------|-------------------------|
|-10-10-12-10-13-10-12-10-|-10-10-12-10-10-10-12-10-|
|--8--8--8--8--8--8--8--8-|--8--8--8--8--8--8--8--8-|
|-------------------------|-------------------------|
|-------------------------|-------------------------|
|-------------------------|-------------------------|
|-------------------------|-------------------------|
|-10-10-12-10-13-10-12-10-|-10-10-12-10-10-10-12-10-|
|--8--8--8--8--8--8--8--8-|--8--8--8--8--8--8--8--8-|
|-------------------------|-------------------------|
|-------------------------|-------------------------|
|-------------------------|-------------------------|
|-------------------------|-------------------------|
|-10-10-12-10-10-10-12-10-|-10-10-12-10-10-10-12-10-|
|--8--8--8--8--8--8--8--8-|--8--8--8--8--8--8--8--8-|
|-------------------------|-------------------||
|-------------------------|-------------------||
|-------------------------|-------------------||
|-------------------------|-------7-7-8-8-9-9-||
|-10-10-12-10-10-10-12-10-|-10-10-5-5-6-6-7-7-||
|--8--8--8--8--8--8--8--8-|--8--8-------------||
Chorus
|-------------------------|---------------------------|
|-------------------------|---------------------------|
|-------------------------|---------------------------|
|-10-10-12-10-10-10-12-10-|-(10)-10-12-10-10-10-12-10-|
|--8--8--8--8--8--8--8--8-|--(8)--8--8--8--8--8--8--8-|
|-------------------------|---------------------------|
|-------------------------|---------------------------|
|-------------------------|---------------------------|
|-------------------------|---------------------------|
|-------------------------|---------------------------|
|-10-10-12-10-10-10-12-10-|-(10)-10-12-10-10-10-12-10-|
|--8--8--8--8--8--8--8--8-|--(8)--8--8--8--8--8--8--8-|
|-------------------------|-------------------------|
|-------------------------|-------------------------|
|-------------------------|-------------------------|
|-12-12-14-12-12-12-14-12-|-12-12-14-12-12-12-14-12-|
|-10-10-10-10-10-10-10-10-|-10-10-10-10-10-10-10-10-|
|-------------------------|-------------------------|
|-------------------------|-------------------------|
|-------------------------|-------------------------|
|-------------------------|-------------------------|
|-12-12-14-12-12-12-14-12-|-12-12-14-12-12-12-14-12-|
|-10-10-10-10-10-10-10-10-|-10-10-10-10-10-10-10-10-|
|-------------------------|-------------------------|
|-------------------------|-------------------------|
|-------------------------|-------------------------|
|-------------------------|-------------------------|
|-12-12-14-12-12-12-14-12-|-12-12-14-12-12-12-14-12-|
|-10-10-10-10-10-10-10-10-|-10-10-10-10-10-10-10-10-|
|-------------------------|-------------------------|
E E E E E E E E E E E E E E Q
|-------------------------|------------------------|
|-------------------------|------------------------|
|-------------------------|------------------------|
|-12-12-14-12-12-12-14-12-|-12-12-12-12-12-12-12\--|
|-10-10-10-10-10-10-10-10-|-10-10-10-10-10-10-10\--|
|-------------------------|------------------------|
|-------------------------|---------------------------|
|-------------------------|---------------------------|
|-------------------------|---------------------------|
|-------------------------|---------------------------|
|-10-10-12-10-10-10-12-13-|-(13)-10-12-10-10-10-12-10-|
|--8--8--8--8--8--8--8--8-|--(8)--8--8--8--8--8--8--8-|
To Coda
|-------------------------|---------------------------|
|-------------------------|---------------------------|
|-------------------------|---------------------------|
|-------------------------|---------------------------|
|-10-10-12-10-10-10-12-10-|-(10)-10-12-10-10-10-12-10-|
|--8--8--8--8--8--8--8--8-|--(8)--8--8--8--8--8--8--8-|
To Dbl. Coda
Gtr II Gt
E Q E Q E E +E E Q Q Q
|---------------|----------------||
|---3----3----3-|-(3)---3--------||
|-0----0----0---|-----0----------||
|---------------|----------------||
|---------------|----------------||
|---------------|----------6--7--||
|
| Gtr III
| E Q E Q E E +E E Q Q Q
|---------------|----------------||
|---------------|----------------||
|---------------|----------------||
|---------------|----------------||
|-5-5--5-5--5-5-|-(5)-5-5--------||
|-3-3--3-3--3-3-|-(3)-3-3--6--7--||
Guitar Solo w/slide
r I
~~ ~~~~~~~ ~~
a E E H E E E E E E +Q E E
|---------------------------|------------------------------|
|-9s11s=9s11-----------8-11-|--11s=8s11-(11)-----8-11--|
|---------------------------|------------------------------|
|---------------------------|------------------------------|
|---------------------------|------------------------------|
|---------------------------|------------------------------|
|
| E E E E E E E E E E E E E E E E
|---------------------------|------------------------------|
|---------------------------|------------------------------|
|---------------------------|------------------------------|
|---------------------------|------------------------------|
|---10-10-12-10-13-10-12-10-|--10--10-12-10--10--10-12-10--|
|----8--8--8--8--8--8--8--8-|---8---8--8--8---8---8--8--8--|
~~~~ ~~~
+Q Q a E E a E E
|-------------------------------|
|-(11)-----8--------------------|
|---------------9s11s=9-7s=8----|
|-----------------------7s=8--8-|
|-------------------------------|
|-------------------------------|
|
| E E E E E E E E
|-------------------------------|
|-------------------------------|
|-------------------------------|
|-------------------------------|
|--10--10-12-10---13-10---12-10-|
|---8---8--8--8----8--8----8--8-|
~~~~~~~~~~~~~~~~~~
|---------------------------|----------------------------|
|---------------------------|----------------------------|
|-------------------------6-|-(6)s=7s=8---------------6s=|
|-(8)----------(8)--6s=8----|------------8-(8)s=6s=8-----|
|---------------------------|----------------------------|
|---------------------------|----------------------------|
|
| E E E E E E E E E E E E E E E E
|---------------------------|----------------------------|
|---------------------------|----------------------------|
|---------------------------|----------------------------|
|---------------------------|----------------------------|
|-10--10-12-10-10--10-12-10-|-10--10-12-10-10--10-12-10--|
|--8---8--8--8--8---8--8--8-|--8---8--8--8--8---8--8--8--|
E Q E +E a Q a E
|------------------------------|
|-----------8-(8)--------------|
|--7s=8-----------6s=8----6s=8-|
|------------------------------|
|------------------------------|
|------------------------------|
|
| E E E E E E E E
|------------------------------|
|------------------------------|
|------------------------------|
|------------------------------|
|-10-10-12-10-10----10-12---10-|
|--8--8--8--8--8-----8--8----8-|
+Q Q Q Q Q Q Q E E
|--------------------------|-----------------------|
|--------------------------|--------------------9s=|
|-(8)s====5s====9s====5s===|=10s===11s==12s==15----|
|--------------------------|-----------------------|
|--------------------------|-----------------------|
|--------------------------|-----------------------|
|
| E E E E E E E E E E E E E E E E
|--------------------------|-----------------------|
|--------------------------|-----------------------|
|--------------------------|-----------------------|
|--------------------------|--------7-7--8-8--9-9--|
|-10--10-12-10-10-10-12-10-|-10-10--5-5--6-6--7-7--|
|--8---8--8--8--8--8--8--8-|--8--8-----------------|
~~~~~~
H E E E E +E E E E Q. E
|-------------------------|----------------------------|
|-13----------13s11----13-|-(13)-----------------------|
|-------------------12----|------11s13-13-13-----------|
|-------------------------|------------13-13-----------|
|-------------------------|----------------------------|
|-------------------------|----------------------------|
|
| E E E E E E E E E E E E E E E E
|-------------------------|----------------------------|
|-------------------------|----------------------------|
|-------------------------|----------------------------|
|-10-10-12-10-10-10-12-10-|--10--10-12-10-10--10-12-10-|
|--8--8--8--8--8--8--8--8-|---8---8--8--8--8---8--8--8-|
|-------------------------|----------------------------|
~~~~~~~~~~~~~~~~~~~~~~~~~~~~~
a Q E E E Q E +H +E E a E a E
|-11-13----14-15-------------|-----------------------------------|
|-11-13----------16----------|----------------------------15s16--|
|-------------------16----16-|-(16)----------(16)-13-5-16--------|
|----------------------------|-----------------------------------|
|----------------------------|-----------------------------------|
|----------------------------|-----------------------------------|
|
| E E E E E E E E E E E E E E E E
|----------------------------|-----------------------------------|
|----------------------------|-----------------------------------|
|----------------------------|-----------------------------------|
|----10-10-12-10-10-10-12-10-|--10--10-12-10--10--10---12--------|
|-----8--8--8--8--8--8--8--8-|---8---8--8--8---8---8----8-----0--|
|----------------------------|-----------------------------------|
~~~
+E E E E E E E E E E E E E Q.
|---------------------------|--------------------------|
|-(16)----16s17----16s17----|-16s17----16s18-----------|
|------16-------16-------16-|-------16-------16--------|
|---------------------------|--------------------------|
|---------------------------|--------------------------|
|---------------------------|--------------------------|
|
| E E E E E E E E Q E E E E E E
|---------------------------|--------------------------|
|---------------------------|--------------------------|
|---------------------------|--------------------------|
|---------------------------|--------------------------|
|--10--10-12-10-10-10-12-10-|-13----12-10-10-10--12-10-|
|---8---8--8--8--8--8--8--8-|--8-----0--0--0--0---0--0-|
E E a E E E a Q E H +E E E E
|-------------------------------|----------------------0----------|
|-------------------------------|---------------------------0h=1s=|
|-16s14-------14s16-14s16----16s|==14-----------(14)-(14)/--------|
|-------14s16-------------------|---------------------------------|
|-------------------------------|---------------------------------|
|-------------------------------|---------------------------------|
|
| E E E E E E E E +E E E E E E E E
|-------------------------------|---------------------------------|
|-------------------------------|---------------------------------|
|-------------------------------|---------------------------------|
|-------------------------------|---------------------------------|
|-10-10----12-10-10----10-12-10-|-(10)-10-12-10--10---10---12-10--|
|--8--8-----8--8--8-----8--8--8-|--(8)--8--8--8---8----8----8--8--|
~~ ~~~~~~~
Q Q E E a E E +E E E E +Q Q
|----------------------------|-----------------------------|
|-15----15----15s13-------15-|-(15)-------------------0----|
|-------------------13s15----|------13s15-------------0----|
|----------------------------|------------15-(15)----------|
|----------------------------|-----------------------------|
|----------------------------|-----------------------------|
|
| E E E E E E E E E E E E E E E E
|----------------------------|-----------------------------|
|----------------------------|-----------------------------|
|----------------------------|-----------------------------|
|-12-12-14-12-12-12----14-12-|--12--12-14-12--12--12-14-12-|
|-10-10-10-10-10-10----10-10-|--10--10-10-10--10--10-10-10-|
|----------------------------|-----------------------------|
E E a E E E a E E E a E E E a E E E a Q
|-------------------------------|----------------------------------|
|-15s13-------15s13-------15s13-|-------15s13-------15s13----------|
|-------12s14-------12s14-------|-12s14-------12s14-------13s15----|
|-------------------------------|----------------------------------|
|-------------------------------|----------------------------------|
|-------------------------------|----------------------------------|
|
| E E E E E E E E E E E E E E E E
|-------------------------------|----------------------------------|
|-------------------------------|----------------------------------|
|-------------------------------|----------------------------------|
|-12-12----14-12-12----12-14-12-|----12-12-14----12-12-12----14-12-|
|-10-10----10-10-10----10-10-10-|----10-10-10----10-10-10----10-10-|
|-------------------------------|----------------------------------|
~~~~~~~~ ~~~~~~~
Q Q E E a E E +E E E E +Q Q
|-------------------------15-|-(15)------------------------|
|-15----15----15s13----------|-----------------------------|
|-------------------13s15----|------13s15-------------0----|
|----------------------------|------------15-(15)----------|
|----------------------------|-----------------------------|
|----------------------------|-----------------------------|
|
| E E E E E E E E E E E E E E E E
|----------------------------|-----------------------------|
|----------------------------|-----------------------------|
|----------------------------|-----------------------------|
|-12-12-14-12-12-12----14-12-|--12--12-14-12--12--12-14-12-|
|-10-10-10-10-10-10----10-10-|--10--10-10-10--10--10-10-10-|
|----------------------------|-----------------------------|
E E E a E E a E E E a E E E a E E E a Q
|------------------------------|-------20s18---------------------|
|-20s18------20s18-------20s18-|-------------------20s18---------|
|-------19-5-------18s20-------|-18s20-------18s20-------18s20---|
|------------------------------|---------------------------------|
|------------------------------|---------------------------------|
|------------------------------|---------------------------------|
|
| E E E E E E E E E E E E E E Q
|------------------------------|---------------------------------|
|------------------------------|---------------------------------|
|------------------------------|---------------------------------|
|-12-12-14---12-12----12-14-12-|----12-12-12----12-12-12----12\--|
|-10-10-10---10-10----10-10-10-|----10-10-10----10-10-10----10\--|
|------------------------------|---------------------------------|
~~~~~~~~~~~~~~~~~~~~ ~~
Q Q Q Q E E a E E E Q a E
|-20----20----------20----|-------------------------------|
|-------------20----------|-20s18-------18s19-20----------|
|-------------------------|-------18s20-18s19-------18s20-|
|-------------------------|-------------------------------|
|-------------------------|-------------------------------|
|-------------------------|-------------------------------|
|
| E E E E E E E E E E E E E E E E
|-------------------------|-------------------------------|
|-------------------------|-------------------------------|
|-------------------------|-------------------------------|
|-------------------------|-------------------------------|
|-10-10-12-10-13-10-12-10-|-10-10----12-10-10-10-12----10-|
|--8--8--8--8--8--8--8--8-|--8--8-----8--8--8--8--8-----8-|
D.S. al Coda
|--------3---------| |--------3--------|
+Q a Q a Q a Q a Q a Q H H
|------------------------------------------------------|---------------------------||
|------------------------------------------------------|-------------20\-----------||
|-(20)----18s21----18s21----18s21----18s21----18s21----|-20----------20\-----------||
|------------------------------------------------------|---------------------------||
|------------------------------------------------------|---------------------------||
|------------------------------------------------------|---------------------------||
|
| E E E E E E E E E E E E E E E E
|------------------------------------------------------|---------------------------||
|------------------------------------------------------|---------------------------||
|------------------------------------------------------|---------------------------||
|------------------------------------------------------|---------------------------||
|--10--10-------12-------10----13-10-------12-------10-|-10-10-12-10-10--10-12-10--||
|---8---8--------8--------8-----8--8--------8--------8-|--8--8--8--8--8---8--8--8--||
2nd Guitar Solo
&
Gtr II
E Q E Q E E +E E Q Q E E +Q Q E Q E
|---------------|---------------------||---------------------------------|
|---3----3----3-|-(3)---3--3----------||-------------------8-----------8-|
|-0----0----0---|-----0-------0-10b12-||-(10)----10b12-------10b12-------|
|---------------|---------------------||---------------------------------|
|---------------|---------------------||---------------------------------|
|---------------|---------------------||---------------------------------|
|
| Gtr III
| E Q E Q E E +E E Q Q Q E E E E E E E E
|---------------|---------------------||---------------------------------|
|---------------|---------------------||---------------------------------|
|---------------|---------------------||---------------------------------|
|---------------|---------------------||---------------------------------|
|-5-5--5-5--5-5-|-(5)-5-5-------------||--10--10-12----10-13-10----12-10-|
|-3-3--3-3--3-3-|-(3)-3-3--6--7-------||---8---8--8-----8--8--8-----8--8-|
S S E E E +E E E E
|-------------------------------|
|-------------------------------|
|-10p8-----8--8-(8)-----8-10b11-|
|------10-----------10----------|
|-------------------------------|
|-------------------------------|
|
| E E E E E E E E
|-------------------------------|
|-------------------------------|
|-------------------------------|
|-------------------------------|
|-10---10-12-10-10--10-12-10----|
|--8----8--8--8--8---8--8--8----|
~~~~~~~~~~~~~~~~~~~~~
+E E E +E S S E E E +H +E E E E
|----------------------------------|------------------------------|
|-------8--------------------------|------------------------------|
|-(10)----10b12-(10)-10p8-----8--8-|-(8)----------(8)-----8-10b11-|
|-------------------------10-------|------------------10----------|
|----------------------------------|------------------------------|
|----------------------------------|------------------------------|
|
| E E E E E E E E E E E E E E E E
|----------------------------------|------------------------------|
|----------------------------------|------------------------------|
|----------------------------------|------------------------------|
|----------------------------------|------------------------------|
|--10--10-12-----10--13---10-12-10-|-10--10-12-10-10--10-12-10----|
|---8---8--8------8---8----8--8--8-|--8---8--8--8--8---8--8--8----|
|-------8-------------8-------------8-|
|-------8---------------------------8-|
|-(10)----10b12-(10)----10b12-(10)----|
|-------------------------------------|
|-------------------------------------|
|-------------------------------------|
|
| E E E E E E E E
|-------------------------------------|
|-------------------------------------|
|-------------------------------------|
|-------------------------------------|
|--10--10-12-----10--10-10-----12--10-|
|---8---8--8------8---8--8------8---8-|
S S E E E +E E E E +E E E E S S E E E
|-------------------------------|--------------------------------|
|-------------------------------|-------8--------8---------------|
|-10p8-----8--8-(8)-----8-10b12-|-(10)----10b12----10p8-----8--8-|
|------10-----------10----------|-----------------------10-------|
|-------------------------------|--------------------------------|
|-------------------------------|--------------------------------|
|
| E E E E E E E E E E E E E E E E
|-------------------------------|--------------------------------|
|-------------------------------|--------------------------------|
|-------------------------------|--------------------------------|
|-------------------------------|--------------------------------|
|-10---10-12-10-10--10-12-10----|--10--10-12----10-10---10-12-10-|
|--8----8--8--8--8---8--8--8----|---8---8--8-----8--8----8--8--8-|
~~~
+E E E E +E E E E E Q. E E E E
|-----------------------11-|----11--------------------|
|---------------------x-10-|----10--------10----------|
|-(8)----8-8b9-(8)---------|-----------------10p=8-10-|
|-----10-----------10------|--------------------------|
|--------------------------|--------------------------|
|--------------------------|--------------------------|
|
| E E E E E E E E E E E E E E E E
|--------------------------|--------------------------|
|--------------------------|--------------------------|
|--------------------------|--------------------------|
|--------7-7----8---8-9--9-|-10-10--12-10-10-10-12-10-|
|-10--10-5-5----6---6-7--7-|--8--8---8--8--8--8--8--8-|
|--8---8-------------------|--------------------------|
~~~~~~~ ~~~~~
+E E E E +E E E E +E Q. S S E E E
|-------------------------------|------------------------------------|
|-------------------------------|------------------------------------|
|-(10)p=8-----8-(8)-----8-10b12-|-(10)-10b12-------10p8-----8-10b11--|
|---------10--------10----------|-----------------------10-----------|
|-------------------------------|------------------------------------|
|-------------------------------|------------------------------------|
|
| E E E E E E E E E E E E E E E E
|-------------------------------|------------------------------------|
|-------------------------------|------------------------------------|
|-------------------------------|------------------------------------|
|--10--10-12-10-10--10-12-10----|--10--10----12-10-10---10-12-10-----|
|---8---8--8--8--8---8--8--8----|---8---8-----8--8--8----8--8--8-----|
|-------------------------------|------------------------------------|
+E E S S E E E E E +E E E +E E E +E E
|--------------------------------|-------------------------------------|
|-------8------------------------|-------8-------------8-------------8-|
|-(10)----10p8-----8-----8-10b12-|-(10)----10b12-(10)----10b12-(10)----|
|--------------10----10----------|-------------------------------------|
|--------------------------------|-------------------------------------|
|--------------------------------|-------------------------------------|
|
| E E E E E E E E E E E E E E E E
|--------------------------------|-------------------------------------|
|--------------------------------|-------------------------------------|
|--------------------------------|-------------------------------------|
|--10--10-12---10-10-10-12-------|-------------------------------------|
|---8---8--8----8--8--8--8--0----|--10--10-12-----10--10-10-----12--10-|
|--------------------------------|---8---8--8------8---8--8------8---8-|
|-----------------------------------------|
|-------------8-------------8-------------|
|-10b11-(10)----10b11-(10)----10b12-(10)--|
|-----------------------------------------|
|-----------------------------------------|
|-----------------------------------------|
|
| Q E E E E E E
|-----------------------------------------|
|-----------------------------------------|
|-----------------------------------------|
|-----------------------------------------|
|-13---------12-10-----10--10-12-----10---|
|--8----------0--0------0---0--0------0---|
~~~~~~~
E E +E E S S E E E +E E E E +E E E E
|--------------------------------|--------------------------------|
|--8-------------8---------------|--------------------------------|
|----10b12-(10)----10p8-----8--8-|--(8)p=0--8--8-(8)-----8-10b12==|
|-----------------------10-------|-------------------10-----------|
|--------------------------------|--------------------------------|
|--------------------------------|--------------------------------|
|
| E E E E E E E E +E E E E E E E E
|--------------------------------|--------------------------------|
|--------------------------------|--------------------------------|
|--------------------------------|--------------------------------|
|--------------------------------|--------------------------------|
|-10-10-----12--10-10---10-12-10-|-(10)-10-12-10-10--10-12-10-----|
|--8--8------8---8--8----8--8--8-|--(8)--8--8--8--8---8--8--8-----|
~~~~~~~~~~~~
+Q Q a +S S E E E
|-------------------------------------|
|-------------------------------------|
|-(10)----10----10r(10)p8-----8-10b12-|
|-------------------------10----------|
|-------------------------------------|
|-------------------------------------|
|
| E E E E E E E E
|-------------------------------------|
|-------------------------------------|
|-------------------------------------|
|--12--12-14-12-----12----12-14-12----|
|--10--10-10-10-----10----10-10-10----|
|-------------------------------------|
~~~~~~~~~~~~~~~~ ~~~~~~
E Q. +E E E E E Q. E. S S S E
|---------------------------------|------------------------------------|
|---------------------------------|------------------------------------|
|----10b12-------(10)-----8-10b12-|----10b12-------10-----8-10p8-10b12-|
|---------------------10----------|------------------------------------|
|---------------------------------|------------------------------------|
|---------------------------------|------------------------------------|
|
| E E E E E E E E E E E E E E E E
|---------------------------------|------------------------------------|
|---------------------------------|------------------------------------|
|---------------------------------|------------------------------------|
|-12-12----14-12--12--12-14-12----|-12-12----14-12-12--12---14---12----|
|-10-10----10-10--10--10-10-10----|-10-10----10-10-10--10---10---10----|
|---------------------------------|------------------------------------|
~~~~~~
|------------------------------|-------------------------------------|
|------------------------------|-------8-------------8-------------8-|
|-(10)-----------------8-10b12-|-(10)----10b12-(10)----10b12-(10)----|
|------------------10----------|-------------------------------------|
|------------------------------|-------------------------------------|
|------------------------------|-------------------------------------|
|
| E E E E E E E E E E E E E E E E
|------------------------------|-------------------------------------|
|------------------------------|-------------------------------------|
|------------------------------|-------------------------------------|
|--12--12-14-12-12-12-14-12----|--12--12-14-----12--12-12-----14--12-|
|--10--10-10-10-10-10-10-10----|--10--10-10-----10--10-10-----10--10-|
|------------------------------|-------------------------------------|
|----------------------------------------|
|-------------8-------------8------------|
|-10b12-(10)----10b12-(10)----10b11-(10)-|
|----------------------------------------|
|----------------------------------------|
|----------------------------------------|
|
| E E E E E E E E
|----------------------------------------|
|----------------------------------------|
|----------------------------------------|
|-12-----12--14-12-----12--12-14-----12--|
|-10-----10--10-10-----10--10-10-----10--|
|----------------------------------------|
~~~~~~~~~~~~
E E +E E E +E E E +Q S S E E E E E
|--------------------------------------|--------------------------------|
|--8-------------8-------------8-------|--------------------------------|
|----10b12-(10)----10b12-(10)----10b12-|-(10)----10p8-----8--0--8--8b9--|
|--------------------------------------|--------------10----10----------|
|--------------------------------------|--------------------------------|
|--------------------------------------|--------------------------------|
|
| E E E E E E E E E E E E E E Q
|--------------------------------------|--------------------------------|
|--------------------------------------|--------------------------------|
|--------------------------------------|--------------------------------|
|-12-12-----14--12-12-----12--14-12----|--12--12-12---12-12-12-12\------|
|-10-10-----10--10-10-----10--10-10----|--10--10-10---10-10-10-10\------|
|--------------------------------------|--------------------------------|
~~~~~~~~~~~~~~
+E Q. +Q E E +E E E E E E E E
|-----------------------------|--------------------------|
|-----------------------------|---------------8-----8----|
|-(8)--------------------0----|---------8p=0--8p=0--8p=0-|
|-----10--------(10)--------8-|-(8)h10-------------------|
|-----------------------------|--------------------------|
|-----------------------------|--------------------------|
|
| E E E E E E E E E E E E E E E E
|-----------------------------|--------------------------|
|-----------------------------|--------------------------|
|-----------------------------|--------------------------|
|-----------------------------|--------------------------|
|-10--10--12-10--13--10-12-10-|-10--10-12-10-10-10-12-10-|
|--8---8---8--8---8---8--8--8-|--8---8--8--8--8--8--8--8-|
D.S.S. al Dbl. Coda
~~~
H. E E +H +E E Q
|--------------------------|---------------------------------||
|------------------------8-|-(8)-----------------------------||
|---------------------0--8-|-(8)----------(8)b8.5------------||
|-10-----------------------|---------------------------------||
|--------------------------|---------------------------------||
|--------------------------|---------------------------------||
|
| E E E E E E E E E E E E E E E E
|--------------------------|---------------------------------||
|--------------------------|---------------------------------||
|--------------------------|---------------------------------||
|--------------------------|---------------------------------||
|-10--10-12-10-13-10-12-10-|-10--10-12-10-10------10-12-10---||
|--8---8--8--8--8--8--8--8-|--8---8--8--8--8-------8--8--8---||
Interlude
&&
Gtrs II, III
Q Q H W Wx6
|--------------|----------|--------|
|--------------|----------|--------|
|--------------|----------|--------|
|--------------|----------|--------|
|-10\----------|----------|--------|
|--8\----------|----------|--------|
Gtr I
~~~~~~~~~~~~~~~~
E Q E E E E a E E a Q. +H
|---------------------------------------|---------------------------------|
|-10s====11----11--11s===9s==7-10s11----|----10s11----------(11)----------|
|---------------------------------------|---------------------------------|
|---------------------------------------|---------------------------------|
|---------------------------------------|---------------------------------|
|---------------------------------------|---------------------------------|
|
| Gtr II
| ~~~~~~~~~~~~~~~~
| Q. E +E +E E E E Q. +Q Q
|---------------------------------------|---------------------------------|
|---------------------------------------|---------------------------------|
|-10b11========10r(10)r(10)p=8----10b11-|-------10b11-------(10)----------|
|---------------------------------------|---------------------------------|
|---------------------------------------|---------------------------------|
|---------------------------------------|---------------------------------|
|
| Gtr III
| E E E E E E E E E E E E E E E E
|---------------------------------------|---------------------------------|
|---------------------------------------|---------------------------------|
|---------------------------------------|---------------------------------|
|---------------------------------------|---------------------------------|
|-10-----10-10-10--10---10--10----10----|-10----10----10-10--10--10-10-10-|
|--8------8--8--8---8----8---8-----8----|--8-----8-----8--8---8---8--8--8-|
~~~~~~~~~~~~~~~~~
|--------------------------------------|--------------------------------|
|-15s16-16-----16-16--16---15-13-16----|-(16)----------(16)-(16)s20-----|
|--------------------------------------|--------------------------------|
|--------------------------------------|--------------------------------|
|--------------------------------------|--------------------------------|
|--------------------------------------|--------------------------------|
|
| ~~~~~~~~~~~~
| E E E E +E E E E +H. Q
|--------------------------------------|--------------------------------|
|----10-10b12==10-10-(10)r-10--8-10b11-|-(10)---------------------------|
|--------------------------------------|--------------------------------|
|--------------------------------------|--------------------------------|
|--------------------------------------|--------------------------------|
|--------------------------------------|--------------------------------|
|
| E E E E E E E E E E E E E E E E
|--------------------------------------|--------------------------------|
|--------------------------------------|--------------------------------|
|--------------------------------------|--------------------------------|
|--------------------------------------|--------------------------------|
|----10-10-----10-10--10---10-10-10----|--10--10-10-10--10---10--10-10--|
|-----8--8------8--8---8----8--8--8----|---8---8--8--8---8----8---8--8--|
~~~~~~~~~~~~~~~~
a E E E E E E E E E a Q. +Q +E E
|-13s15-----15-15-15-15s=11--11-15----|----13s15----------(15)----(15)s20-|
|-------------------------------------|-----------------------------------|
|-------------------------------------|-----------------------------------|
|-------------------------------------|-----------------------------------|
|-------------------------------------|-----------------------------------|
|-------------------------------------|-----------------------------------|
|
| ~~~~~~~~~~~~~~~~
| E E E E E +E E E E Q. +Q Q
|----10b11==10-10-10-10r(10)--8-10b11-|-------10b11-------(10)------------|
|-------------------------------------|-----------------------------------|
|-------------------------------------|-----------------------------------|
|-------------------------------------|-----------------------------------|
|-------------------------------------|-----------------------------------|
|-------------------------------------|-----------------------------------|
|
| E E E E E E E E E E E E E E E E
|-------------------------------------|-----------------------------------|
|-------------------------------------|-----------------------------------|
|-------------------------------------|-----------------------------------|
|-------------------------------------|-----------------------------------|
|----10-----10-10-10-10--10--10-10----|-10----10----10-10--10--10--10--10-|
|-----8------8--8--8--8---8---8--8----|--8-----8-----8--8---8---8---8---8-|
~~~~~~~~~
E E E E E E E E +H. Q
|-18-----18-18-18-18s=16--15-20-|-(20)----------------------||
|-------------------------------|---------------------------||
|-------------------------------|---------------------------||
|-------------------------------|---------------------------||
|-------------------------------|---------------------------||
|-------------------------------|---------------------------||
|
| E E E E E +E E E +H. Q
|-17b18==17-17-17-17r(17)-15-20-|-(20)----------------------||
|-------------------------------|---------------------------||
|-------------------------------|----------------------0----||
|-------------------------------|---------------------------||
|-------------------------------|---------------------------||
|-------------------------------|---------------------------||
|
| E E E E E E E E E E E E E E E E
|-------------------------------|---------------------------||
|-------------------------------|---------------------------||
|-------------------------------|---------------------------||
|-------------------------------|---------------------------||
|-10-----10-10-10-10--10--10-10-|--10--10-10-10-10-10-10-10-||
|--8------8--8--8--8---8---8--8-|---8---8--8--8--8--8--8--8-||
Outro Gtr 1.w/slide
Gtr I
~~~~~~~~~~~~~~~~
a H +E E E a E +E a Q E +E E Q
|-------------------------------|-------------------------------|
|-----------------------10------|-------------------------------|
|-8s10----------(10)-10----8s10-|-(10)-8s10------------10s=8----|
|-------------------------------|--------------10-(10)----------|
|-------------------------------|-------------------------------|
|-------------------------------|-------------------------------|
|
| Gtrs II, III
| E E E E E E E E +E E E E E E E E
|-------------------------------|-------------------------------|
|-------------------------------|-------------------------------|
|-------------------------------|-------------------------------|
|-------------------------------|-------------------------------|
|---12-12-14-12--12--12-14---12-|-(12)---12-14-12--12--12-14-12-|
|---10-10-10-10--10--10-10---10-|-(10)---10-10-10--10--10-10-10-|
E E E E E E E E E a Q. Q Q
|----10-------10----------|-------------------------------|
|-------------------------|-------------------------------|
|-10-----8s10-----8s10-10-|------8s11s======13s===16------|
|-------------------------|--10---------------------------|
|-------------------------|-------------------------------|
|-------------------------|-------------------------------|
|
| E E E E E E E E +E E E E E E E E
|-------------------------|-------------------------------|
|-------------------------|-------------------------------|
|-------------------------|-------------------------------|
|-------------------------|-------------------------------|
|-12-12-14-12-12-12-14-12-|-(12)---12-14-12-12-12-14-12---|
|-10-10-10-10-10-10-10-10-|-(10)---10-10-10-10-10-10-10---|
Gtr II
||--------------------------|---------------------------|
||o-------------------------|---------------------------|
||--------------------------|---------------------------|
||--------------------------|---------------------------|
||o-12-12-14-12-12-12-14-12-|-(12)-12-14-12-12-12-14-12-|
||--10-10-10-10-10-10-10-10-|-(10)-10-10-10-10-10-10-10-|
|-------------------------|----------------------------||
|-------------------------|---------------------------o||
|-------------------------|----------------------------||
|-------------------------|----------------------------||
|-12-12-14-12-12-12-14-12-|-(12)-12-14-12-12-12-14-12-o||
|-10-10-10-10-10-10-10-10-|-(10)-10-10-10-10-10-10-10--||
Gtr I
~~~~~~~~~
E E E E E Q E +H H
|-------------------------|---------------------------|
|----13-13-13-13-12----10-|-(10)----------------------|
|-------------------------|---------------------------|
|-------------------------|---------------------------|
|-------------------------|---------------------------|
|-------------------------|---------------------------|
|
| Gtr II
| E E E E E Q E +H H
|-------------------------|---------------------------|
|-------------------------|---------------------------|
|----12-12-12-12-12----11-|-(11)----------------------|
|-------------------------|---------------------------|
|-------------------------|---------------------------|
|-------------------------|---------------------------|
|
| Gtr III
| E E E

Important: The song above is NOT stored on the Chordie server. The original song is hosted at www.guitaretab.com. Chordie works as a search engine and provides on-the-fly formatting. Chordie does not index songs against artists'/composers' will. To remove this song please click here.

Text color:
Chord color:
Chord grids: 
Font size:    
Page size: 

E
Rate #1 of 3 versions

Jango Player

Login - add to songbook

SHARE PAGE  




You need to log in to post comments