Guitar Tabs, Chords and Lyrics
Server problems seems to be fixed. Chordie has been experiencing problems with songs disappearing. These issues now seems to be fixed, but still verifying the fix. If you find anything strange, please email admin@chordie.com.


Take It or Leave It  Foghat

TAKE IT OR LEAVE IT
As recorded by Foghat
(From the 1975 Album FOOL FOR THE CITY)
Words and Music by Lonesome Dave Peverett and Nick Jameson
Transcribed by Tone Jone's
x 3 [Cm]5 5 4 3 1 3 [Fm]3 1 1 1 x [Abmaj7]x 6 5 4 3 x 8 [Bb]8 7 6 x
6 x[Ab/Bb] 6 5 4 4 7 x [F/A]5 7 8 x 1 3 3[F] 2 1 1 3 5 [Gm]5 3 3 3
x x [Eb]5 3 4 3 x x [Ab]6 5 4 4 x 3[Csus2] 5 5 3 3
Gtr I (E A D G B E) - 'Electric Gtr (Clean)'
Gtr II (E A D G B E) - 'Acoustic Gtr.(Steel)'
Gtr III (E A D G B E) - '12- String Acoustic'
Gtr IV (E A D G B E) - '12 String Acoustic'
Gtr V (E A D G B E) - 'Acoustic w/heavy reverb & chorus'
Gtr VI (E A D G B E) - 'Dist Gtr.'
Intro
Moderately Q=111
[4/4] Gtr I
W Q E E E E E E E E E E Q E E
 
 |----------|-------8---8---8-|---8---8---------|
 |----------|-------8---8---8-|---8---8-----x---|
 |----------|-------8---8---8-|---8---8-----x---|
 |----------|--8----8---8---8-|---8---8-----x---|
 |----------|-10--------------|-----------------|
 |----------|--8--------------|-----------------|

|
| Gtr II
| W Q E E E E E E E E E E E E E E
 
 |----------|--3--x-3-3-3---3-|-3-3---3-3-3-x-x-|
 |----------|--4--x-4-4-4---4-|-4-4---4-4-4-x-x-|
 |----------|--3--x-3-3-3---3-|-3-3---3-3-3-x-x-|
 |----------|--5----5-5-5---5-|-5-5---5-5-5-----|
 |----------|--3----3-3-3---3-|-3-3---3-3-3-----|
 |----------|-----------------|-----------------|

Q. E +E Q E +E Q E +E Q E
 
 |-----------------3-|-(3)----------------|
 |--------3-(3)-4----|-----4--3-(3)-4-----|
 |-5-----------------|--------5-(5)-------|
 |-6-----------------|--------------------|
 |-------------------|--------------------|
 |-------------------|--------------------|

|
| E E E E +E Q E +E Q E +E Q.
 
 |-3--3-3----------3-|-(3)----------------|
 |-4--4-4-3-(3)-4----|-----4--3-(3)-4-----|
 |-5--5-5------------|--------5-(5)-------|
 |-6--6-6------------|--------6-(6)-------|
 |-------------------|--------------------|
 |-------------------|--------------------|

Q Q E Q. E Q. E Q. Q E E E E E E H. Q
 
 |-----------------|-----------3------|------------------|---------------||
 |--6--6----6------|---4-------4------|------------6p4---|---------------||
 |--5--5----5------|---4-------4------|-5--5-3---------3-|---------------||
 |--7--7----7------|------------------|-5--5-----5-------|---------------||
 |--5--5----5------|------------------|-3----------------|---3-----------||
 |-----------------|------------------|------------------|---------------||

|
| Q Q E E E E Q Q E E E E Q E E a E E E E a H. Q
 
 |-----------------|-3----3--x-3--x-3-|------------------|---------------||
 |-!6--6----6------|-4----4--x-4--x-4-|-4------3h4-------|-3h4-----------||
 |-!5--5----5--x-x-|-4----4--x-4--x-4-|-5----5-----5---5-|---------------||
 |-!7--7--7-7--x-x-|-5----5--x-5--x-5-|-5--5---------5---|---------------||
 |-!5--5--5-5------|------------------|-3----------------|---------------||
 |-----------------|------------------|------------------|---------------||

Verse
[Cm]Gtr II[Fm]
Q E E E E E E E E E E E E E E E E E E E E E E
| | | | | | | | | | | | | | | | | | | | | | |
/ x / / / x / / / x / / / x / / / x / / / x /
Gtr I
H E Q E +E E E E +E E E E +E E E E +E E E E
 
 |--8---------8----8-|--(8)--8----8--(8)--8----8-|--(8)--8----8--(8)--8----8-|
 |--8---------8----8-|--(8)--8----8--(8)--8----9-|--(9)--9----9--(9)--9----9-|
 |--8---------8----8-|--(8)--8----8--(8)--8---10-|-(10)-10---10-(10)-10---10-|
 |-10--------10---10-|-(10)-10---10-(10)-10---10-|-(10)-10---10-(10)-10---10-|
 |-10--------10---10-|-(10)-10---10-(10)-10----8-|--(8)--8----8--(8)--8----8-|
 |--8---------8----8-|--(8)--8----8--(8)--8------|---------------------------|

[Cm]  
[E]| [E]| [E]| [E]| [E]| [E]| [E]| [E]|
/ / x / / / x /
[+E] [E] [E] [E] [+E] [E] [E] [E]  
 
 |--(8)--8----8--(8)--8----8-|
 |--(9)--9----9--(9)--9----8-|
 |-(10)-10---10-(10)-10----8-|
 |-(10)-10---10-(10)-10---10-|
 |--(8)--8----8--(8)--8---10-|
 |-------------------------8-|

[Fm] 
[E]| [E]| [E]| [E]| [E]| [E]| [E]| [E]| [E]| [E]| [E]| [E]| [E]| [E]| [E]| [E]|
/ / x / / / x / / / x / / / x /
[+E] [E] [E] [E] [+E] [E] [E] [E] [+E] [E] [E] [E] [+E] [E] [E] [E]  
 
 |--(8)--8----8--(8)--8----8-|--(8)--8----8--(8)--8----8-|
 |--(8)--8----8--(8)--8----8-|--(8)--8----8--(8)--8----9-|
 |--(8)--8----8--(8)--8----8-|--(8)--8----8--(8)--8---10-|
 |-(10)-10---10-(10)-10---10-|-(10)-10---10-(10)-10---10-|
 |-(10)-10---10-(10)-10---10-|-(10)-10---10-(10)-10----8-|
 |--(8)--8----8--(8)--8----8-|--(8)--8----8--(8)--8------|

E E E E E E E E E E E E E E Q [AbmajBb]H H
| | | | | | | | | | | | | | | | |
/ / x / / / x / / / x / / / x / /
+E E E E +E E E E +E E E E +E E Q H H
 
 |--(8)--8----8--(8)--8----8-|--(8)--8----8--(8)--8----|-----------|
 |--(9)--9----9--(9)--9----9-|--(9)--9----9--(9)--9----|-4----6----|
 |-(10)-10---10-(10)-10---10-|-(10)-10---10-(10)-10----|-5----7----|
 |-(10)-10---10-(10)-10---10-|-(10)-10---10-(10)-10----|-6----8----|
 |--(8)--8----8--(8)--8----8-|--(8)--8----8--(8)--8----|-----------|
 |---------------------------|-------------------------|-----------|

[Cm] W [AbmajBb]H H [Cm] W [AbmajBb]H H
| | | | | |
[/] [/] [/] [/] [/] [/] 
H E Q. H H Q. E E Q E H H
 
 |----------8----|-----------|------------------|-----------|
 |--8-------8----|-4----6----|------------------|-4----6----|
 |--8-------8----|-5----7----|--8----10p8-----x-|-5----7----|
 |-10------10----|-6----9----|-10---------10----|-6----9----|
 |---------------|-----------|------------------|-----------|
 |---------------|-----------|------------------|-----------|

[Cm]Gtr II[Ab/Bb] [F/A] [F]
H H H H W W
| | | |
[/] [/] [/] [/]  
Gtr I
H H H H H Q. S S E S S +S S E E E Q
 
 |------------------|-----------------|-3-------------|----------------------||
 |--8-------4-------|-6-------1-------|-4----4--------|-6---4-(4)---3--------||
 |--8-------5-------|-5-------2-------|-3----3--------|---------------5---3--||
 |-10-------6-------|-7-------3-------|-5---------5s7-|---5-------3-----3----||
 |------------------|-----------------|-3-------------|----------------------||
 |------------------|-----------------|---------------|----------------------||

|
| Gtrs III, IV Gtr II
| E E E E E E E E E E E E E E E E H Q. S S E S S +E E Q Q
 
 |------8-------3---|-----5-------1---|-3-------------|----------------------||
 |----8---8---4---4-|---6---6---1---1-|-4-------------|-6---4-(4)---3--------||
 |--8-------5-------|-5-------2-------|-3----3--------|---------------5---3--||
 |------------------|-----------------|-5---------5s7-|---5---------3--------||
 |------------------|-----------------|-3-------------|---------------6---5--||
 |------------------|-----------------|---------------|----------------------||

Verse
$
[Cm]Gtr II[Fm]
Q E E E E E E E E E E E E E E
| | | | | | | | | | | | | | |
/ x / / / x / / / x / / / x /
Gtr I
H E Q E +E E E E +E E E E
 
 |--8---------8----8-|--(8)--8----8--(8)--8----8-|
 |--8---------8----8-|--(8)--8----8--(8)--8----9-|
 |--8---------8----8-|--(8)--8----8--(8)--8---10-|
 |-10--------10---10-|-(10)-10---10-(10)-10---10-|
 |-10--------10---10-|-(10)-10---10-(10)-10----8-|
 |--8---------8----8-|--(8)--8----8--(8)--8------|

[Cm] 
[E]| [E]| [E]| [E]| [E]| [E]| [E]| [E]| [E]| [E]| [E]| [E]| [E]| [E]| [E]| [E]|
/ / x / / / x / / / x / / / x /
[+E] [E] [E] [E] [+E] [E] [E] [E] [E] [E] [E] [E] [+E] [E] [E] [E]  
 
 |--(8)--8----8--(8)--8----8-|--8--8----8--(8)--8----8--|
 |--(9)--9----9--(9)--9----9-|--9--9----9--(9)--9----8--|
 |-(10)-10---10-(10)-10---10-|-10-10---10-(10)-10----8--|
 |-(10)-10---10-(10)-10---10-|-10-10---10-(10)-10---10--|
 |--(8)--8----8--(8)--8----8-|--8--8----8--(8)--8---10--|
 |---------------------------|-----------------------8--|

[Fm] 
[E]| [E]| [E]| [E]| [E]| [E]| [E]| [E]| [E]| [E]| [E]| [E]| [E]| [E]| [E]| [E]|
/ / x / / / x / / / x / / / x /
[E] [E] [E] [E] [+E] [E] [E] [E] [+E] [E] [E] [E] [+E] [E] [E] [E]  
 
 |--8--8----8--(8)--8----8-|--(8)--8----8--(8)--8----8-|
 |--8--8----8--(8)--8----8-|--(8)--8----8--(8)--8----9-|
 |--8--8----8--(8)--8----8-|--(8)--8----8--(8)--8---10-|
 |-10-10---10-(10)-10---10-|-(10)-10---10-(10)-10---10-|
 |-10-10---10-(10)-10---10-|-(10)-10---10-(10)-10----8-|
 |--8--8----8--(8)--8----8-|--(8)--8----8--(8)--8------|

E E E E E E E E E E E E E E Q
| | | | | | | | | | | | | | |
/ / x / / / x / / / x / / / x
E E E E +E E E E +E E E E +E E Q
 
 |--8--8----8--(8)--8----8-|--(8)--8----8--(8)--8-----|
 |--9--9----9--(9)--9----9-|--(9)--9----9--(9)--9-----|
 |-10-10---10-(10)-10---10-|-(10)-10---10-(10)-10-----|
 |-10-10---10-(10)-10---10-|-(10)-10---10-(10)-10-----|
 |--8--8----8--(8)--8----8-|--(8)--8----8--(8)--8-----|
 |-------------------------|--------------------------|

[AbmajBb]H H [Cm] W [AbmajBb]H H [Cm] W
| | | | | |
[/] [/] [/] [/] [/] [/] 
H H H E Q. H H Q. E E Q E
 
 |-----------|----------8----|-----------|-------------------|
 |-4----6----|--8-------8----|-4----6----|-------------------|
 |-5----7----|--8-------8----|-5----7----|--8----10p8-----x--|
 |-6----8----|-10------10----|-6----9----|-10---------10-----|
 |-----------|---------------|-----------|-------------------|
 |-----------|---------------|-----------|-------------------|

|
| Gtr V
| H H W H H W
 
 |-6----8----|--3------------|-6----8----|--3----------------|
 |-4----6----|--4------------|-4----6----|--4----------------|
 |-5----7----|--5------------|-5----7----|--5----------------|
 |-6----8----|--5------------|-6----8----|--5----------------|
 |-----------|---------------|-----------|-------------------|
 |-----------|---------------|-----------|-------------------|

[AbmajBb] [Cm] [Ab/Bb] [F/A] [F]  
[B]| [B]| [B]| [B]| [B]| [B]|
[/] [/] [/] [/] [/] [/]  
H H H H W
 
 |-----------|-------------|-----------|
 |-4----6----|--8-----4----|-----------|
 |-5----7----|--8-----5----|-----------|
 |-6----9----|-10-----6----|-----------|
 |-----------|-------------|-----------|
 |-----------|-------------|-----------|

|
| H H H H W
 
 |-6----8----|--3----------|-----------|
 |-4----6----|--4----------|-----------|
 |-5----7----|--5----------|-----------|
 |-6----8----|--5----------|-----------|
 |-----------|-------------|-----------|
 |-----------|-------------|-----------|

Bridge
To Coda
[Gm]Gtr II[Eb]
W H E E E E E E E E E E E E
| | | | | | | | | | | | |
/ / / / / x / / / x / / /
Gtr I
H Q. E E E E E E E E E E E E E E E E E
 
 |-3-------3------3-|-3-3-3-3-3-3-3-3-||----------------------|
 |-3-------3------3-|-3-3-3-3-3-3-3-3-||----------------------|
 |-3-------3------3-|-3-3-3-3-3-3-3-3-||------8--8-------8--8-|
 |-5-------5------5-|-5-5-5-5-5-5-5-5-||------8--8-------8--8-|
 |-5-------5------5-|-5-5-5-5-5-5-5-5-||-6--6---------6-------|
 |-3-------3------3-|-3-3-3-3-3-3-3-3-||----------------------|

|
| Gtrs III, IV Gtr VI
| E E E E E E E E E E E E E E E E E E E E E E E E
 
 |-----3--------3---|-----3-------3---||---11---11---11-11-11-|
 |---3---3--------3-|-------3-------3-||---11---11---11-11-11-|
 |-3----------3-----|---3-------3-----||---12---12---12-12-12-|
 |---------5--------|-5-------5-------||----------------------|
 |------------------|-----------------||----------------------|
 |------------------|-----------------||----------------------|

[Ab] [Eb]  
[E]| [E]| [E]| [E]| [E]| [E]| [E]| [E]| [E]| [E]| [E]| [E]| [E]| [E]| [E]| [E]|
x / / / x / / / x / / / x / / /
E E E E E E S S E E E E E E E E E
 
 |-------------------|----------------------|
 |-----4-4-----6p4---|----------------------|
 |-----5-5---------5-|------8--8-------8--8-|
 |---6-------6-------|------8--8-------8--8-|
 |-------------------|----6------6--6-------|
 |-------------------|----------------------|

|
| E E E E E E E E E E E E E E E E
 
 |---8---8---8-8---8-|---11---11---11-11-11-|
 |---9---9---9-9---9-|---11---11---11-11-11-|
 |---8---8---8-8---8-|---12---12---12-12-12-|
 |-------------------|----------------------|
 |-------------------|----------------------|
 |-------------------|----------------------|

[Ab] [Eb]  
[E]| [E]| [E]| [E]| [E]| [E]| [E]| [E]| [E]| [E]| [E]| [E]| [E]| [E]| [E]| [E]|
x / / / x / / / x / / / x / / /
E E E E E E S S E E E E E E E E E
 
 |-------------------|-----------------------|
 |-----4-4-----6p4---|-----------------------|
 |-----5-5---------5-|------8--8-------8--8--|
 |---6-------6-------|------8--8-------8--8--|
 |-------------------|----6---------6--------|
 |-------------------|-----------------------|

|
| E E E E Q E E E E E E E E E E
 
 |---8---8-8---8---8-|---11---11---11-11-11--|
 |---9---9-----9---9-|---11---11---11-11-11--|
 |---8---8-----8---8-|---12---12---12-12-12--|
 |-------------------|-----------------------|
 |-------------------|-----------------------|
 |-------------------|-----------------------|

[Ab] [Eb] [Ab] 
[E]| [E]| [E]| [E]| [E]| [E]| [E]| [E]| [E]| [E]| [E]| [E]| [E]| [E]| [E]| [E]| [E]| [E]| [E]| [E]| [E]| [E]| [E]|[E]
x / / / x / / / x / / / x / / / x / / / x / /
[E] [E] [E] [E] [E] [E] [E] [E] [E] [E] [E] [E] [E] [E] [E] [E] [E] [E] [E] [E] [E] [E] [E] [E]  
 
 |-----------------|----------------------|-----------------|
 |-----4-4-----4-4-|----------------------|-----4-4-----4---|
 |-----5-5-----5-5-|------8--8-------8--8-|-----5-5-----5---|
 |---6-------4-----|------8--8-------8--8-|---6-------4-----|
 |-----------------|----6---------6-------|-----------------|
 |-----------------|----------------------|-----------------|

|
| E E E E E E E E E E E E E E E E E E E E E E Q
 
 |---8---8---8-8-8-|---11---11---11-11-11-|---8---8---8-----|
 |---9---9---9-9-9-|---11---11---11-11-11-|---9---9---9-----|
 |---8---8---8-8-8-|---12---12---12-12-12-|---8---8---8-----|
 |-----------------|----------------------|-----------------|
 |-----------------|----------------------|-----------------|
 |-----------------|----------------------|-----------------|

Gtr VI
W W
 
 |-------------------|-------------------|
 |-------------------|-------------------|
 |-------------------|-------------------|
 |-------------------|-------------------|
 |-------------------|-------------------|
 |-------------------|-------------------|

|
| Gtrs II, III, IV
| E E E E +E E E E E E E E +E E E E
 
 |-------4-(4)-------|-------3-(3)-------|
 |-----6-------6-----|-----4-------4-----|
 |---6-----------6---|---5-----------5---|
 |-------------------|-6-----------------|
 |-------------------|-------------------|
 |-------------------|-------------------|

|
| Gtr I
| W W
 
 |-------------------|-------------------|
 |-------------------|-------------------|
 |-------------------|-------------------|
 |-------------------|-------------------|
 |-------------------|-------------------|
 |-------------------|-------------------|

<
W W
 
 |--------------------|------------------||
 |--------------------|------------------||
 |--------------------|-17---------------||
 |--------------------|------------------||
 |--------------------|------------------||
 |--------------------|------------------||

|
| E E E E E E E E E E E E E E E E
 
 |-----3--------3-----|------3-------3---||
 |-------3--------3---|--------3-------3-||
 |---4--------4-------|----4-------4-----||
 |-5-------5----------|--5-------5-------||
 |--------------------|------------------||
 |--------------------|------------------||

|
| H Q. S S H H
 
 |--------------------|------------------||
 |--------------------|------------------||
 |--------------------|------------------||
 |--------------------|----------5-------||
 |---------2------3-4-|--5---------------||
 |-3------------------|------------------||

Guitar Solo
[Cm]Gtr II[Fm]
Q E E E E E E E E E E E E E E E E E E E E E E
| | | | | | | | | | | | | | | | | | | | | | |
/ x / / / x / / / x / / / x / / / x / / / x /
~~~~~~~~~~~~~~~~~~~~~~~~~~~~~~~~~~~~~~~~~~~~~~~~~~~~~~~~~~~~~~~~~~~~~~~~~~~
+W +W +W
 
 |---------------------|---------------------------|---------------------------|
 |---------------------|---------------------------|---------------------------|
 |-(17)----------------|-(17)----------------------|-(17)----------------------|
 |---------------------|---------------------------|---------------------------|
 |---------------------|---------------------------|---------------------------|
 |---------------------|---------------------------|---------------------------|

|
| Gtr I
| H E Q E +E E E E +E E E E +E E E E +E E E E
 
 |---8----------8----8-|--(8)--8----8--(8)--8----8-|--(8)--8----8--(8)--8----8-|
 |---8----------8----8-|--(8)--8----8--(8)--8----9-|--(9)--9----9--(9)--9----9-|
 |---8----------8----8-|--(8)--8----8--(8)--8---10-|-(10)-10---10-(10)-10---10-|
 |--10---------10---10-|-(10)-10---10-(10)-10---10-|-(10)-10---10-(10)-10---10-|
 |--10---------10---10-|-(10)-10---10-(10)-10----8-|--(8)--8----8--(8)--8----8-|
 |---8----------8----8-|--(8)--8----8--(8)--8------|---------------------------|

[Cm]  
[E]| [E]| [E]| [E]| [E]| [E]| [E]| [E]| [E]| [E]| [E]| [E]| [E]| [E]| [E]| [E]|
/ / x / / / x / / / x / / / x /
~~~~~~
+H +E +Q. +E E E. +S +H
 
 |---------------------------------|-----------------------------------|
 |---------------------------------|-----------------------------------|
 |-(17)---------(17)b19==(17)r=====|=(17)s15s12-----(12)-(12)----------|
 |---------------------------------|-----------------------------------|
 |---------------------------------|-----------------------------------|
 |---------------------------------|-----------------------------------|

|
| E E E E +E E E E +E E E E +E E E E
 
 |---8---8----8--(8)-------8-----8-|--(8)--8------8-------(8)--8----8--|
 |---9---9----9--(9)-------9-----8-|--(8)--8------8-------(8)--8----8--|
 |--10--10---10-(10)------10-----8-|--(8)--8------8-------(8)--8----8--|
 |--10--10---10-(10)------10----10-|-(10)-10-----10------(10)-10---10--|
 |---8---8----8--(8)-------8----10-|-(10)-10-----10------(10)-10---10--|
 |-------------------------------8-|--(8)--8------8-------(8)--8----8--|

[Fm]  
[E]| [E]| [E]| [E]| [E]| [E]| [E]| [E]|
/ / x / / / x /
+S E. E E +Q E. S
 
 |-------------------------------------|
 |-------------------------------------|

|-(12)p10p===8h10b12==(10)r===10p===8s|
 
 |-------------------------------------|
 |-------------------------------------|
 |-------------------------------------|

|
| E E E E +E E E E
 
 |---8------8----8------(8)--8-----8---|
 |---8------8----8------(8)--8-----9---|
 |---8------8----8------(8)--8----10---|
 |--10-----10---10-----(10)-10----10---|
 |--10-----10---10-----(10)-10-----8---|
 |---8------8----8------(8)--8---------|

E E E E E E E E E E E E E E Q
| | | | | | | | | | | | | | |
/ / x / / / x / / / x / / / x
~~~~~~~~~~~
Q +Q +H Q +E. S +Q +E E
 
 |---------------------------|---------------------------------|
 |---------------------------|---------------------------------|
 |--7----(7)-----(7)---------|---7b8r===(7)s===5--(5)----(5)h7-|
 |---------------------------|---------------------------------|
 |---------------------------|---------------------------------|
 |---------------------------|---------------------------------|

|
| E E E E +E E E E +E E E E +E E Q
 
 |--8--8------8--(8)--8----8-|--(8)---8------8----(8)--8-------|
 |--9--9------9--(9)--9----9-|--(9)---9------9----(9)--9-------|
 |-10-10-----10-(10)-10---10-|-(10)--10-----10---(10)-10-------|
 |-10-10-----10-(10)-10---10-|-(10)--10-----10---(10)-10-------|
 |--8--8------8--(8)--8----8-|--(8)---8------8----(8)--8-------|
 |---------------------------|---------------------------------|

[Abmaj7Bb]H H [Cm] W
| | |
[/] [/] [/]  
 
 |-3-| |-3--| |---3---|

Q Q Q Q Q Q E Q. +Q E E E
 
 |----------------|-------------------------11-|
 |----------------|----11----(11)-----11-13----|
 |-8p7h8-10-8-10s=|=12-------------------------|
 |----------------|----------------------------|
 |----------------|----------------------------|
 |----------------|----------------------------|

|
| H H H E Q.
 
 |----------------|----------------8-----------|
 |-4------6-------|--8-------------8-----------|
 |-5------7-------|--8-------------8-----------|
 |-6------8-------|-10------------10-----------|
 |----------------|----------------------------|
 |----------------|----------------------------|

[Abmaj7] H [Bb] H [Cm] W
| | |
[/] [/] [/] 
~~~~~~~~~~~~~~~
Q +Q a +E E E E H +E E E E
 
 |-13b15r=(13)b15===(13)r(13)p11-13-11-|-11b13------(11)-11-11-11-|
 |-------------------------------------|-----------------11-11-11-|
 |-------------------------------------|--------------------------|
 |-------------------------------------|--------------------------|
 |-------------------------------------|--------------------------|
 |-------------------------------------|--------------------------|

|
| H H Q. E E Q E
 
 |-------------------------------------|--------------------------|
 |--4----------------------6-----------|--------------------------|
 |--5----------------------7-----------|--8------10p==8---------x-|
 |--6----------------------9-----------|-10--------------10-------|
 |-------------------------------------|--------------------------|
 |-------------------------------------|--------------------------|

[Abmaj7] [Bb] [Cm] Gt[Cm]r II[Ab/Bb]
H H W H H
| | | | |
[/] [/] [/] [/] [/] 
Gtr VI
E E E E E E E E E E Q Q E E E E E E E. S +E E
 
 |-11s13-13s11-11s10-10s8-|--8------8------8--8-|--8--8--8--8---------8-(8)---|
 |-11s13-13s11-11s10-10s8-|--8-6s8--8------8--8-|--8--8--8--8---------8-(8)---|
 |------------------------|---------------10-10-|-10-10-10-10-10b10.5-------8-|
 |------------------------|---------------------|-----------------------------|
 |------------------------|---------------------|-----------------------------|
 |------------------------|---------------------|-----------------------------|

|
| Gtr I
| H H H E Q. H H
 
 |------------------------|------------8--------|-----------------------------|
 |--4-----------6---------|--8---------8--------|--8-----------4--------------|
 |--5-----------7---------|--8---------8--------|--8-----------5--------------|
 |--6-----------9---------|-10--------10--------|-10-----------6--------------|
 |------------------------|---------------------|-----------------------------|
 |------------------------|---------------------|-----------------------------|

[F/A] [F] [Gm]  
[B]| [B]| [E]| [E]| [E]| [E]| [E]| [E]| [E]| [E]|
[/] [/] [/] [/] [/] [/] [/] [/] [/] [/] 
E +E E E +E E E E E +E +Q E +E +Q
 
 |-------------------------------|-------------------------------------------|
 |-------------13----------------|----------------------11b13r(11)b13-(11)---|
 |-10b12==(10)----10r(10)-8-10-8-|-10b12r(10)b12-(10)------------------------|
 |-------------------------------|-------------------------------------------|
 |-------------------------------|-------------------------------------------|
 |-------------------------------|-------------------------------------------|

|
 
 | PM----------------------------------------

| H H E E E E E E E E
 
 |-------------------------------|-------------------------------------------|
 |--6------------------1---------|-------------------------------------------|
 |--5------------------2---------|-------------------------------------------|
 |--7------------------3---------|--5------5-------5--5--5------5-------5--5-|
 |-------------------------------|--5------5-------5--5--5------5-------5--5-|
 |-------------------------------|--3------3-------3--3--3------3-------3--3-|

D.S. al Coda
[E]| [E]| [E]| [E]| [E]| [E]| [E]| [E]|
[/] [/] [/] [/] [/] [/] [/] [/] 
>
~~~~
E +E +Q E +E +Q
 
 |-13b15r(13)b15-(13)---18b20r(18)b20-(18)---||
 |-------------------------------------------||
 |-------------------------------------------||
 |-------------------------------------------||
 |-------------------------------------------||
 |-------------------------------------------||

|
 
 |-----------------------------------------|

| E E E E E E E E
 
 |-------------------------------------------||
 |-------------------------------------------||
 |-------------------------------------------||
 |--5------5-------5--5--5------5-------5--5-||
 |--5------5-------5--5--5------5-------5--5-||
 |--3------3-------3--3--3------3-------3--3-||

Outro
&
[Gm]Gtr II[Csus2]
E E Q H E E E E E E E E
| | | | | | | | |
/ x x / / x / / /
Gtr I
E E Q H Q E E Q E E
 
 |-3-----------||---------------------|
 |-3-----------||---------------------|
 |-3-----------||----------------8--8-|
 |-5-----------||------8--8------8--8-|
 |-5-----------||-----10-10-----10-10-|
 |-3-----------||------8--8-----------|

[Fm] [Csus2]  
[E]| [E]| [E]| [E]| [E]| [E]| [E]| [E]| [E]| [E]| [E]| [E]| [E]| [E]| [E]| [E]|
x x / / x / / / x x / / x / / /
+Q E E E E E E E E E E E E E E
 
 |------------------------|----------------------|
 |------------------------|----------------------|
 |--(8)---10--8-----10--8-|----------------------|
 |--(8)---10-10-----10-10-|------8--8------8--8--|
 |-(10)----8--8---8-------|-----10-10-----10-10--|
 |------------------------|-8-8---------8--------|

[Fm] [Csus2]  
[E]| [E]| [E]| [E]| [E]| [E]| [E]| [E]| [E]| [E]| [E]| [E]| [E]| [E]| [E]| [E]|
x x / / x / / / x x / / x / / /
[E] [E] [E] [E] [E] [E] [E] [E] [E] [E] [E] [E] [E] [E] [E] [E]  
 
 |---------------------||---------------------|
 |---------------------||---------------------|
 |-----10-10-----10-10-||---------------------|
 |-----10-10-----10-10-||------8--8------8--8-|
 |-8-8---------8-------||-----10-10-----10-10-|
 |---------------------||-8-8---------8-------|

[Fm] [Csus2]  
[E]| [E]| [E]| [E]| [E]| [E]| [E]| [E]| [E]| [E]| [E]| [E]| [E]| [E]| [E]| [E]|
x x / / x / / / x x / / x / / /
[E] [E] [E] [E] [E] [E] [E] [E] [E] [E] [E] [E] [E] [E] [E] [E]  
 
 |---------------------|----------------------|
 |---------------------|----------------------|
 |-----10-10-----10-10-|----------------------|
 |-----10-10-----10-10-|------8--8------8--8--|
 |-8-8---------8-------|-----10-10-----10-10--|
 |---------------------|-8-8---------8--------|

[Fm] [Csus2]  
[E]| [E]| [E]| [E]| [E]| [E]| [E]| [E]| [E]| [E]| [E]| [E]| [E]| [E]| [E]| [E]|
x x / / x / / / x x / / x / / /
[E] [E] [E] [E] [E] [E] [E] [E] [E] [E] [E] [E] [E] [E] [E] [E]  
 
 |---------------------|---------------------|
 |---------------------|---------------------|
 |-----10-10-----10-10-|---------------------|
 |-----10-10-----10-10-|------8--8------8--8-|
 |-8-8---------8-------|-----10-10-----10-10-|
 |---------------------|-8-8---------8-------|

[Fm] [Csus2]  
[E]| [E]| [E]| [E]| [E]| [E]| [E]| [E]| [E]| [E]| [E]| [E]| [E]| [E]| [E]| [E]|
x x / / x / / / x x / / x / / /
[E] [E] [E] [E] [E] [E] [E] [E] [E] [E] [E] [E] [E] [E] [E] [E]  
 
 |---------------------|----------------------|
 |------9--9------9--9-|----------------------|
 |-----10-10-----10-10-|----------------------|
 |-----10-10-----10-10-|------8--8------8--8--|
 |---8---------8-------|-----10-10-----10-10--|
 |---------------------|-8-8---------8--------|

[Fm] [Csus2] [Fm] 
[E]| [E]| [E]| [E]| [E]| [E]| [E]| [E]| [E]| [E]| [E]| [E]| [E]| [E]| [E]| [E]| [E]| [E]| [E]| [E]| [E]| [E]| [E]| [E]|
x x / / x / / / x x / / x / / / x x / / x / / /
[E] [E] [E] [E] [E] [E] [E] [E] [E] [E] [E] [E] [E] [E] [E] [E] [E] [E] [E] [E] [E] [E] [E] [E]  
 
 |---------------------|---------------------|-----------------------|
 |------9--9------9--9-|---------------------|-------9--9-------9----|
 |-----10-10-----10-10-|---------------------|------10-10------10----|
 |-----10-10-----10-10-|------8--8------8--8-|---10-10-10---10-10-10-|
 |---8---------8-------|-----10-10-----10-10-|-----------------------|
 |---------------------|-8-8---------8-------|-----------------------|

[Ab/BbF/A] [F] [Gm] [Csus2] [Fm] 
[B]| [B]| [B]| [E]| [E]| [E]| [E]| [E]| [E]| [E]| [E]| [E]| [E]| [E]| [E]| [E]| [E]| [E]| [E]| [E]| [E]| [E]| [E]|
/ / / / / / / x x / / x / / / x x / / x / / /
H H H Q E E E E E E E E E E E E E E E E E E
 
 |-----------|--------------|---------------------|----------------------|
 |-4----6----|-1------------|---------------------|----------------------|
 |-5----5----|-2------------|---------------------|-----10-10-----10-10--|
 |-6----7----|-3----5---5-5-|------8--8------8--8-|-----10-10-----10-10--|
 |-----------|--------------|-----10-10-----10-10-|-8-8---------8--------|
 |-----------|--------------|-8-8---------8-------|----------------------|

[Csus2] [Fm] [Csus2] 
[E]| [E]| [E]| [E]| [E]| [E]| [E]| [E]| [E]| [E]| [E]| [E]| [E]| [E]| [E]| [E]| [E]| [E]| [E]| [E]| [E]| [E]| [E]| [E]|
x x / / x / / / x x / / x / / / x x / / x / / /
[E] [E] [E] [E] [E] [E] [E] [E] [E] [E] [E] [E] [E] [E] [E] [E] [E] [E] [E] [E] [E] [E] [E] [E]  
 
 |---------------------|---------------------|---------------------|
 |---------------------|---------------------|---------------------|
 |---------------------|-----10-10-----10-10-|---------------------|
 |------8--8------8--8-|-----10-10-----10-10-|------8--8------8--8-|
 |-----10-10-----10-10-|-8-8---------8-------|-----10-10-----10-10-|
 |-8-8---------8-------|---------------------|-8-8---------8-------|

[Fm] [Csus2]  
[E]| [E]| [E]| [E]| [E]| [E]| [E]| [E]| [E]| [E]| [E]| [E]| [E]| [E]| [E]| [E]|
x x / / x / / / x x / / x / / /
[E] [E] [E] [E] [E] [E] [E] [E] [E] [E] [E] [E] [E] [E] [E] [E]  
 
 |---------------------|-----------------------|
 |------9--9------9--9-|-----------------------|
 |-----10-10-----10-10-|-----------------------|
 |-----10-10-----10-10-|------8--8------8--8---|
 |---8---------8-------|-----10-10-----10-10---|
 |---------------------|-8-8---------8---------|

[Fm] [Csus2]  
[E]| [E]| [E]| [E]| [E]| [E]| [E]| [E]| [E]| [E]| [E]| [E]| [E]| [E]| [E]| [E]|
x x / / x / / / x x / / x / / /
[E] [E] [E] [E] [E] [E] [E] [E] [E] [E] [E] [E] [E] [E] [E] [E]  
 
 |---------------------|---------------------|
 |------9--9------9--9-|---------------------|
 |-----10-10-----10-10-|---------------------|
 |-----10-10-----10-10-|------8--8------8--8-|
 |---8---------8-------|-----10-10-----10-10-|
 |---------------------|-8-8---------8-------|

[Fm] [Ab/BbF/A] [F] [Gm] 
[E]| [E]| [E]| [E]| [E]| [E]| [E]| [E]| [B]| [B]| [B]| [E]| [E]| [E]| [E]|
x x / / x / / / / / / / / / /
E E E E E E E E H H H Q E E
 
 |-----------------------|-----------|----------------|
 |-------9--9-------9----|-4----6----|-1--------------|
 |------10-10------10----|-5----5----|-2--------------|
 |---10-10-10---10-10-10-|-6----7----|-3----5---5-5---|
 |-----------------------|-----------|----------------|
 |-----------------------|-----------|----------------|

[Csus2] [Fm]  
[E]| [E]| [E]| [E]| [E]| [E]| [E]| [E]| [E]| [E]| [E]| [E]| [E]| [E]| [E]| [E]|
x x / / x / / / x x / / x / / /
[E] [E] [E] [E] [E] [E] [E] [E] [E] [E] [E] [E] [E] [E] [E] [E]  
 
 ||----------------------|---------------------|
 ||o---------------------|------9--9------9--9-|
 ||----------------------|-----10-10-----10-10-|
 ||-------8--8------8--8-|-----10-10-----10-10-|
 ||o-----10-10-----10-10-|---8---------8-------|
 ||--8-8---------8-------|---------------------|

[Csus2] [Fm]  
[E]| [E]| [E]| [E]| [E]| [E]| [E]| [E]| [E]| [E]| [E]| [E]| [E]| [E]| [E]| [E]|
x x / / x / / / x x / / x / / /
[E] [E] [E] [E] [E] [E] [E] [E] [E] [E] [E] [E] [E] [E] [E] [E]  
 
 |---------------------|----------------------||
 |---------------------|------9--9------9--9-o||
 |---------------------|-----10-10-----10-10--||
 |------8--8------8--8-|-----10-10-----10-10--||
 |-----10-10-----10-10-|---8---------8-------o||
 |-8-8---------8-------|----------------------||

Duration Legend
 
 ---------------
 W - whole; H - half; Q - quarter; E - 8th; S - 16th; T - 32nd; X - 64th; a - acciaccatura

+ - note tied to previous; . - note dotted; .. - note double dotted
Uncapitalized letters represent notes that are staccato (1/2 duration)
Irregular groupings are notated above the duration line
Duration letters will always appear directly above the note/fret number it represents the
duration for. Duration letters with no fret number below them represent rests. Multi-
bar rests are notated in the form Wxn, where n is the number of bars to rest for. Low
melody durations appear below the staff
Tablature Legend
 
 ----------------

h - hammer-on
p - pull-off
b - bend
pb - pre-bend
r - bend release (if no number after the r, then release immediately)
/\ - slide into or out of (from/to "nowhere")
s - legato slide
S - shift slide
- natural harmonic
(n) - artificial harmonic
n(n) - tapped harmonic
~ - vibrato
tr - trill
T - tap
TP - trem. picking
PM - palm muting
\n/ - tremolo bar dip; n = amount to dip
\n - tremolo bar down
n/ - tremolo bar up
/n\ - tremolo bar inverted dip
= - hold bend; also acts as connecting device for hammers/pulls
- volume swell (louder/softer)
x - on rhythm slash represents muted slash
o - on rhythm slash represents single note slash
Misc Legend
 
 -----------

| - bar
|| - double bar
||o - repeat start
o|| - repeat end
*| - double bar (ending)
: - bar (freetime)
$ - Segno
& - Coda
Tempo markers - = BPM(8/16=s8/s16), where s8 = swing 8ths, s16 = swing 16ths
***************************************************************************************
* Generated using Power Tab Editor by Brad Larsen - http://powertab.guitarnetwork.org *
***************************************************************************************

Important: The song above is NOT stored on the Chordie server. The original song is hosted at www.guitaretab.com. Chordie works as a search engine and provides on-the-fly formatting. Chordie does not index songs against artists'/composers' will. To remove this song please click here.

Text color:
Chord color:
Chord grids: 
Font size:    
Page size: 

Ab Abmaj7 B Bb Cm Csus2 E Eb F Fm Gm
Rate #1 of 2 versions

Login - add to songbook

SHARE PAGE  



You need to log in to post comments