Guitar Tabs, Chords and Lyrics
Server problems seems to be fixed. Chordie has been experiencing problems with songs disappearing. These issues now seems to be fixed, but still verifying the fix. If you find anything strange, please email admin@chordie.com.


Honey Hush  Foghat

HONEY HUSH
As recorded by Foghat
(From the 1973 Album ENERGIZED)
Words and Music by Lou Wille Turner
Arranged by Foghat
Transcribed by Tone Jone's
Gtr I (E A D G B E) - 'Distortion Gtr.'
Gtr II (E A D G B E) - 'Dist Gtr.'
Gtr III (E A D G B E) - 'Overdriven Gtr.'
Gtr IV (E A D G B E) - 'Dist Gtr.'
Intro
Fast Rock Q=202
N.C.
[4/4] Gtr I
~~~~~~~ ~~~~~~~
E Q E +H E Q E +H
 
 ||--------------------|-------------------|
 ||o-------------------|-------------------|
 ||---------12-(12)----|-------------------|
 ||--12-14-------------|-12-14--12-(12)----|
 ||o-------------------|-------------------|
 ||--------------------|-------------------|

|
| Gtr II
| ~~~~~~~ ~~~~~~~
| E Q E +H E Q E +H
 
 ||--------------------|-------------------|
 ||o-------------------|-------------------|
 ||--------------------|-------------------|
 ||----------5--(5)----|-------------------|
 ||o--5--7-------------|--5--7---5--(5)----|
 ||--------------------|-------------------|

1. 2.
~~~ ~~~
E Q E E Q. H. Q H. +Q
 
 |-------------------|--------------||-----------------------|
 |-------------------|-------------o||-----------------------|
 |--------12---12----|--------------||-----------------------|
 |-12-14-------------|-14-----------||-14-------------(14)\--|
 |-------------------|-------------o||-----------------------|
 |-------------------|--------------||-----------------------|

|
| ~~~~~~~~~~~~~~~~~~~~~~~~~~
| E Q E E Q. W H +E +E Q
 
 |-------------------|--------------||-----------------------|
 |-------------------|-------------o||-----------------------|
 |-------------------|--------------||-----------------------|
 |---------5----5----|--------------||-----------------------|
 |--5--7-------------|--7----------o||--7-----(7)-(7)s=10\---|
 |-------------------|--------------||-----------------------|

Gtrs I, II
 
 PM------------------------------------------------------------------|

[E] [E] [E] [E] [E] [E] [E] [E] [E] [E] [E] [E] [E] [E] [E] [E] [E] [E] [E] [E] [E] [E] [E] [E] [E] [E] [E] [E] [E] [E] [E] [E]  
 
 |-----------------|-----------------|-----------------|-----------------|
 |-----------------|-----------------|-----------------|-----------------|
 |-----------------|-----------------|-----------------|-----------------|
 |-----------------|-----------------|-----------------|-----------------|
 |-----------------|-----------------|-----------------|-----------------|
 |-0-0-0-0-0-0-0-0-|-0-0-0-0-0-0-0-0-|-0-0-0-0-0-0-0-0-|-0-0-0-0-0-0-0-0-|

Gtr III
 
 |-------3-------|

H +Q +Q +Q
 
 |-----------------------------------|
 |-----------------------------------|

|-14b16r===(14)b16r(14)b16r(14)b16r=|
 
 |-----------------------------------|
 |-----------------------------------|
 |-----------------------------------|

|
| Gtrs I, II
| W
 
 |-----------------------------------|
 |-----------------------------------|
 |-----------------------------------|
 |-----------------------------------|
 |-----------------------------------|
 |-----------------------------------|

+E +E +E +E +H W W
 
 |--------------------------------------------|--------------|--------------|
 |--------------------------------------------|--------------|--------------|
 |-(14)b16r(14)b16r(14)b16r(14)-(14)b16-------|--------------|--------------|
 |--------------------------------------------|--------------|--------------|
 |--------------------------------------------|--------------|--------------|
 |--------------------------------------------|--------------|--------------|

|
| H E Q. Q Q E Q E Q Q E Q E
 
 |--------------------------------------------|--------------|--------------|
 |--------------------------------------------|--------------|--------------|
 |--------------------------------------------|--------------|--------------|
 |--------------------------------------------|--------------|--------------|
 |--------------------------------------------|-5--5---------|-5--5-------5-|
 |--------------------------------------16\---|-3--3--0-3--0-|-3--3--0-3--0-|

Gtrs I, II
Q Q E Q E E E E E E Q E Q Q E Q E Q Q E Q E
 
 |--------------|----------------|--------------|--------------|
 |--------------|----------------|--------------|--------------|
 |--------------|----------------|--------------|--------------|
 |--------------|----------------|--------------|--------------|
 |-5--5--5-5--5-|-5---5---5-5----|-7--7----7----|-7--7----7----|
 |-3--3--0-3--0-|-3-x-3-x-0-3--0-|-5--5--0-5--0-|-5--5--0-5--0-|

Q Q E Q E Q Q E Q E E E E E E Q a E +Q Q Q Q
 
 |--------------|--------------|------------------|---------------|
 |--------------|--------------|------------------|---------------|
 |--------------|--------------|------------------|---------------|
 |--------------|--------------|------------------|---------------|
 |-5--5----5----|-5--5----5----|---7---7---7--7s9-|-(9)-----------|
 |-3--3--0-3--0-|-3--3--0-3--0-|---5---5---5--5s7-|-(7)--5--3--2--|

Verse
$
Q Q E Q E +Q H Q Q Q E Q E
 
 |--------------|--------------||---------------|
 |--------------|--------------||o--------------|
 |--------------|--------------||---------------|
 |--------------|------2-------||---------------|
 |--------------|--------------||o-5--5---------|
 |-3--3--0-3--0-|-(0)----------||--3--3--0-3--0-|

Q Q E Q E Q Q E Q E E E E E E Q E
 
 |--------------|--------------|----------------|
 |--------------|--------------|----------------|
 |--------------|--------------|----------------|
 |--------------|--------------|----------------|
 |-5--5-------5-|-5--5--5-5--5-|-5---5---5-5----|
 |-3--3--0-3--0-|-3--3--0-3--0-|-3-x-3-x-0-3--0-|

Q Q E Q E Q Q E Q E Q Q E Q E Q Q E Q E
 
 |--------------|--------------|--------------|--------------|
 |--------------|--------------|--------------|--------------|
 |--------------|--------------|--------------|--------------|
 |--------------|--------------|--------------|--------------|
 |-7--7----7----|-7--7----7----|-5--5----5----|-5--5----5----|
 |-5--5--0-5--0-|-5--5--0-5--0-|-3--3--0-3--0-|-3--3--0-3--0-|

1.
E E E E E Q a E +Q Q Q Q Q Q E Q E E E E E E Q E
 
 |------------------|---------------|--------------|-----------------||
 |------------------|---------------|--------------|----------------o||
 |------------------|---------------|--------------|-----------------||
 |------------------|---------------|--------------|-----------------||
 |---7---7---7--7s9-|-(9)-----------|--------------|-5---5---5-5----o||
 |---5---5---5--5s7-|-(7)--5--3--2--|-3--3--0-3--0-|-3-x-3-x-0-3--0--||

Chorus
2.
E E E E E Q E Q Q E Q E Q Q E Q E Q Q E Q E
 
 |----------------||--------------|--------------|--------------|
 |----------------||--------------|--------------|--------------|
 |----------------||--------------|--------------|--------------|
 |----------------||--------------|--------------|--------------|
 |-5---5---5-5----||-5--5---------|-5--5-------5-|-5--5--5-5--5-|
 |-3-x-3-x-0-3--0-||-3--3--0-3--0-|-3--3--0-3--0-|-3--3--0-3--0-|

E E E E E Q E Q Q E Q E Q Q E Q E Q Q E Q E
 
 |----------------|--------------|--------------|--------------|
 |----------------|--------------|--------------|--------------|
 |----------------|--------------|--------------|--------------|
 |----------------|--------------|--------------|--------------|
 |-5---5---5-5----|-7--7----7----|-7--7----7----|-5--5----5----|
 |-3-x-3-x-0-3--0-|-5--5--0-5--0-|-5--5--0-5--0-|-3--3--0-3--0-|

To Coda
Q Q E Q E E E E E E Q a E Q Q Q Q Q Q E Q E
 
 |--------------|------------------|-------------|--------------|
 |--------------|------------------|-------------|--------------|
 |--------------|------------------|-------------|--------------|
 |--------------|------------------|-------------|--------------|
 |-5--5----5----|---7---7---7--7s9-|-9-----------|--------------|
 |-3--3--0-3--0-|---5---5---5--5s7-|-7--5--3--2--|-3--3--0-3--0-|

N.C.
Gtr I
~~~~~~~ ~~~~~~~
W E Q E +H E Q E +H
 
 |----------------|-------------------|-------------------|
 |----------------|-------------------|-------------------|
 |----------------|--------12-(12)----|-------------------|
 |----------------|-12-14-------------|-12-14--12-(12)----|
 |----------------|-------------------|-------------------|
 |----------------|-------------------|-------------------|

|
| Gtr II
| ~~~~~~~ ~~~~~~~
| W E Q E +H E Q E +H
 
 |----------------|-------------------|-------------------|
 |----------------|-------------------|-------------------|
 |----------------|-------------------|-------------------|
 |----------------|---------5--(5)----|-------------------|
 |----------------|--5--7-------------|--5--7---5--(5)----|
 |----------------|-------------------|-------------------|

|
| Gtr IV
| E E E E E Q E W W
 
 |----------------|-------------------|-------------------|
 |----------------|-------------------|-------------------|
 |----------------|-------------------|-------------------|
 |----------------|-------------------|-------------------|
 |-5---5---5-5----|-------------------|-------------------|
 |-3-x-3-x-0-3--0-|-------------------|-------------------|

~~~
E Q E E Q. H. Q W
 
 |-------------------|-------------|--------|
 |-------------------|-------------|--------|
 |--------12---12----|-------------|--------|
 |-12-14-------------|-14----------|--------|
 |-------------------|-------------|--------|
 |-------------------|-------------|--------|

|
| ~~~
| E Q E E Q. W W
 
 |-------------------|-------------|--------|
 |-------------------|-------------|--------|
 |-------------------|-------------|--------|
 |---------5----5----|-------------|--------|
 |--5--7-------------|--7----------|--------|
 |-------------------|-------------|--------|

|
| W W W
 
 |-------------------|-------------|--------|
 |-------------------|-------------|--------|
 |-------------------|-------------|--------|
 |-------------------|-------------|--------|
 |-------------------|-------------|--------|
 |-------------------|-------------|--------|

N.C.
Gtr I
~~~~~~~ ~~~~~~~ ~~~
E Q E +H E Q E +H E Q E E Q. H. Q
 
 |-------------------|-------------------|-------------------|--------------|
 |-------------------|-------------------|-------------------|--------------|
 |--------12-(12)----|-------------------|--------12---12----|--------------|
 |-12-14-------------|-12-14--12-(12)----|-12-14-------------|-14-----------|
 |-------------------|-------------------|-------------------|--------------|
 |-------------------|-------------------|-------------------|--------------|

|
| Gtr II
| ~~~~~~~ ~~~~~~~ ~~~
| E Q E +H E Q E +H E Q E E Q. W
 
 |-------------------|-------------------|-------------------|--------------|
 |-------------------|-------------------|-------------------|--------------|
 |-------------------|-------------------|-------------------|--------------|
 |---------5--(5)----|-------------------|---------5----5----|--------------|
 |--5--7-------------|--5--7---5--(5)----|--5--7-------------|--7-----------|
 |-------------------|-------------------|-------------------|--------------|

|
| Gtr IV
| W W W W
 
 |-------------------|-------------------|-------------------|--------------|
 |-------------------|-------------------|-------------------|--------------|
 |-------------------|-------------------|-------------------|--------------|
 |-------------------|-------------------|-------------------|--------------|
 |-------------------|-------------------|-------------------|--------------|
 |-------------------|-------------------|-------------------|--------------|

Gtr III
 
 |----3-----|

H Q E +E E
 
 |----------------------------||
 |----------------------------||
 |-------x------14b16r(14)p12-||
 |----------------------------||
 |----------------------------||
 |----------------------------||

|
| Gtr II
| ~~~~~~~~~
| H +E +E Q
 
 |----------------------------||
 |----------------------------||
 |----------------------------||
 |----------------------------||
 |-7----(7)-(7)s16\-----------||
 |----------------------------||

Guitar Solo
~~~~
Q +Q E E E +E E E E E E E E E
 
 |----------------------------|----12-------------12-----|
 |----------------------------|-12----15p12----12----15p=|
 |-14--(14)--14-12-14b16-(14)-|-------------14-----------|
 |----------------------------|--------------------------|
 |----------------------------|--------------------------|
 |----------------------------|--------------------------|

|
| Q Q E Q E Q Q E Q E
 
 |----------------------------|--------------------------|
 |----------------------------|--------------------------|
 |----------------------------|--------------------------|
 |----------------------------|--------------------------|
 |--5----5--------------------|--5-----5--------------5--|
 |--3----3----0--3---------0--|--3-----3-----0--3-----0--|
 |---3---|

E E E E E E E E E E Q +E +E E E E
 
 |------------------------------|---------------------------------------|
 |-12---------------------------|---------------------------------------|
 |----14-14-14-15p14p==12-14-12-|-14b15-12b13====(12)b14==(12)----12-14-|
 |------------------------------|------------------------------14-------|
 |------------------------------|---------------------------------------|
 |------------------------------|---------------------------------------|

|
| Q Q E Q E E E E E E Q E
 
 |------------------------------|---------------------------------------|
 |------------------------------|---------------------------------------|
 |------------------------------|---------------------------------------|
 |------------------------------|---------------------------------------|
 |--5-----5-----5----5--------5-|--5-----------5------------5---5-------|
 |--3-----3-----0----3--------0-|--3-----x-----3---x--------0---3-----0-|

Q E E +Q Q
 
 |------------------------------------|
 |------------------------------------|
 |-14b16----b16-()---14b16----|
 |------------------------------------|
 |------------------------------------|
 |------------------------------------|

|
| Q Q E Q E
 
 |------------------------------------|
 |------------------------------------|
 |------------------------------------|
 |------------------------------------|
 |--7-----7----------------7----------|
 |--5-----5------------0---5-------0--|

E Q. E S S E E
 
 |--------------------------------|
 |--------------------------------|
 |---b16----14b16r14p12----12-|
 |--------------------------14----|
 |--------------------------------|
 |--------------------------------|

|
| Q Q E Q E
 
 |--------------------------------|
 |--------------------------------|
 |--------------------------------|
 |--------------------------------|
 |-7---------7---------7----------|
 |-5---------5---0-----5--------0-|

D.S. al Coda
E +Q E E +E E E +H +H
 
 |---------------15-------------------|------------------------||
 |------------------------------------|------------------------||
 |-14b16==(14)------14r(14)-12-12b13==|=(12)b14======(12)------||
 |------------------------------------|------------------------||
 |------------------------------------|------------------------||
 |------------------------------------|------------------------||

|
| Q Q E Q E Q Q E Q E
 
 |------------------------------------|------------------------||
 |------------------------------------|------------------------||
 |------------------------------------|------------------------||
 |------------------------------------|------------------------||
 |--5----------5---------5------------|---5-------5-------5----||
 |--3----------3-----0---3------0-----|---3-------3----0--3--0-||

Chorus
&
Q Q E Q E E E E E E Q E Q Q E Q E Q Q E Q E
 
 |--------------|----------------||--------------|--------------|
 |--------------|----------------||--------------|--------------|
 |--------------|----------------||--------------|--------------|
 |--------------|----------------||--------------|--------------|
 |--------------|-5---5---5-5----||-5--5---------|-5--5-------5-|
 |-3--3--0-3--0-|-3-x-3-x-0-3--0-||-3--3--0-3--0-|-3--3--0-3--0-|

Q Q E Q E E E E E E Q E Q Q E Q E Q Q E Q E
 
 |--------------|----------------|--------------|---------------|
 |--------------|----------------|--------------|---------------|
 |--------------|----------------|--------------|---------------|
 |--------------|----------------|--------------|---------------|
 |-5--5--5-5--5-|-5---5---5-5----|-7--7----7----|-7--7----7-----|
 |-3--3--0-3--0-|-3-x-3-x-0-3--0-|-5--5--0-5--0-|-5--5--0-5--0--|

Q Q E Q E Q Q E Q E Q Q E Q E E E E E E Q E
 
 |--------------|--------------|--------------|----------------|
 |--------------|--------------|--------------|----------------|
 |--------------|--------------|--------------|----------------|
 |--------------|--------------|--------------|----------------|
 |-5--5----5----|-5--5----5----|--------------|-5---5---5-5----|
 |-3--3--0-3--0-|-3--3--0-3--0-|-3--3--0-3--0-|-3-x-3-x-0-3--0-|

Interlude
N.C.
Gtr I
~~~~~~~
W W E Q E +H
 
 |--------------|----------||--------------------|
 |--------------|----------||o-------------------|
 |--------------|----------||---------12-(12)----|
 |--------------|----------||--12-14-------------|
 |--------------|----------||o-------------------|
 |--------------|----------||--------------------|

|
| Gtr II
| ~~~~~~~
| W W E Q E +H
 
 |--------------|----------||--------------------|
 |--------------|----------||o-------------------|
 |--------------|----------||--------------------|
 |--------------|----------||----------5--(5)----|
 |--------------|----------||o--5--7-------------|
 |--------------|----------||--------------------|

|
| Gtr IV
| Q Q E Q E W W
 
 |--------------|----------||--------------------|
 |--------------|----------||o-------------------|
 |--------------|----------||--------------------|
 |--------------|----------||--------------------|
 |--------------|----------||o-------------------|
 |-3--3--0-3--0-|----------||--------------------|

~~~~~~~ ~~~
E Q E +H E Q E E Q. H. Q
 
 |-------------------|-------------------|---------------||
 |-------------------|-------------------|--------------o||
 |-------------------|--------12---12----|---------------||
 |-12-14--12-(12)----|-12-14-------------|-14------------||
 |-------------------|-------------------|--------------o||
 |-------------------|-------------------|---------------||

|
| ~~~~~~~ ~~~
| E Q E +H E Q E E Q. W
 
 |-------------------|-------------------|---------------||
 |-------------------|-------------------|--------------o||
 |-------------------|-------------------|---------------||
 |-------------------|---------5----5----|---------------||
 |--5--7---5--(5)----|--5--7-------------|--7-----------o||
 |-------------------|-------------------|---------------||

|
| W W W
 
 |-------------------|-------------------|---------------||
 |-------------------|-------------------|--------------o||
 |-------------------|-------------------|---------------||
 |-------------------|-------------------|---------------||
 |-------------------|-------------------|--------------o||
 |-------------------|-------------------|---------------||

Gtr III
~~~~~~~~~~~~~
H +H +H +H +Q. +E +Q +Q
 
 |-------------------|-----------------|------------------------------------|
 |-------------------|-----------------|------------------------------------|
 |-14b16=====(14)----|-(14)----(14)r===|=(14)b16r==(14)b16==(14)r=(14)b16===|
 |-------------------|-----------------|------------------------------------|
 |-------------------|-----------------|------------------------------------|
 |-------------------|-----------------|------------------------------------|

|
| Gtr I
| W W W
 
 |-------------------|-----------------|------------------------------------|
 |-------------------|-----------------|------------------------------------|
 |-------------------|-----------------|------------------------------------|
 |-------------------|-----------------|------------------------------------|
 |-------------------|-----------------|------------------------------------|
 |-------------------|-----------------|------------------------------------|

Guitar Solo
+E +Q. +H E E Q H
 
 |---------------------------||---------------------|
 |---------------------------||---------------------|
 |-(14)r(14)b16r==(14)b16r===||=14b16---------------|
 |---------------------------||---------------------|
 |---------------------------||---------------------|
 |---------------------------||---------------------|

|
 
 | PM---------------|

| W E E E E E E E E
 
 |---------------------------||---------------------|
 |---------------------------||---------------------|
 |---------------------------||---------------------|
 |---------------------------||---------------------|
 |---------------------------||---------------------|
 |---------------------------||--0----0-0-0-0-0-0-0-|

~~
 
 |---3---|

Q E E E E E E E Q H Q
 
 |----------------------------|----------------------|
 |----------------------------|----------------------|
 |-----15p14p==12-14-12-14-12-|-14b16---12-----------|
 |----------------------------|----------------------|
 |----------------------------|----------------------|
 |----------------------------|----------------------|

|
 
 | PM-------------------------------------------------

| E E E E E E E E E E E E E E E E
 
 |----------------------------|----------------------|
 |----------------------------|----------------------|
 |----------------------------|----------------------|
 |----------------------------|----------------------|
 |----------------------------|----------------------|
 |-0-0--0----0-----0--0--0--0-|--0----0--0-0-0-0-0-0-|
 |---3---| |---3---|

H Q E E E E E E E E E E E E
 
 |------------------------|------------------------------|
 |-------------15p14p==12-|-14-12------------------------|
 |------------------------|-------14-14-15p14p==12-14-12-|
 |------------------------|------------------------------|
 |------------------------|------------------------------|
 |------------------------|------------------------------|

|
 
 |----------------------------------------------------|

| E E E E E E E E E E E E E E E E
 
 |------------------------|------------------------------|
 |------------------------|------------------------------|
 |------------------------|------------------------------|
 |------------------------|------------------------------|
 |------------------------|------------------------------|
 |-0-0-0-0-0-0--0----0----|--0--0--0--0--0----0-----0--0-|

~~~~~~~~~
E +E E E +E E E E +Q E E H
 
 |-------------15------------------|----------------------|
 |---------------------------------|----------------------|
 |-14b16==(14)----14r(14)-12-14-12-|-(12)-----------------|
 |---------------------------------|--------14\-----------|
 |---------------------------------|----------------------|
 |---------------------------------|----------------------|

|
 
 | PM-----------------------------------------------------

| E E E E E E E E E E E E E E E E
 
 |---------------------------------|----------------------|
 |---------------------------------|----------------------|
 |---------------------------------|----------------------|
 |---------------------------------|----------------------|
 |---------------------------------|----------------------|
 |--0-------0---0--0---0---0--0--0-|---0--0--0--0-0-0-0-0-|

~~
H Q E E E E H E E
 
 |-------------------|---------------------|
 |-------------------|---------------------|
 |-------------------|---------------------|
 |-------------------|-12---12-------12----|
 |-------------14-14-|------------------14-|
 |-------------------|---------------------|

|
 
 |--------------------------------------|

| E E E E E E E E E E E E E E E E
 
 |-------------------|---------------------|
 |-------------------|---------------------|
 |-------------------|---------------------|
 |-------------------|---------------------|
 |-------------------|---------------------|
 |-0-0-0-0-0-0--0--0-|--0-0--0-0-0-0--0--0-|

E E Q E E E E
 
 |----------------------|
 |----------------------|
 |----------------12-14s|
 |-12-14-------14-------|
 |----------------------|
 |----------------------|

|
 
 | PM-------------------

| E E E E E E E E
 
 |----------------------|
 |----------------------|
 |----------------------|
 |----------------------|
 |----------------------|
 |--0--0-0-0-0--0--0--0-|

~~~~~~~~~
E S S E E E E a +E E +Q E E H
 
 |-----------------------15------------|----------------------|
 |-------------------------------------|----------------------|
 |-15s14p12-14-12-14b16=====14r(14)-12-|-(12)-----------------|
 |-------------------------------------|--------14------------|
 |-------------------------------------|----------------------|
 |-------------------------------------|----------------------|

|
 
 |---------------------------------------------------------|

| E E E E E E E E E E E E E E E E
 
 |-------------------------------------|----------------------|
 |-------------------------------------|----------------------|
 |-------------------------------------|----------------------|
 |-------------------------------------|----------------------|
 |-------------------------------------|----------------------|
 |--0--0-----0--0--0------0------0---0-|---0--0--0-0-0-0-0-0--|

~~~~~~~ ~~~
E E E E +Q E E E Q. a E E E E
 
 |--------------------------|---------------------------|
 |--------------------------|---------------------------|
 |----------12-(12)---------|---------------------------|
 |-14p12--------------14p12-|----12---------------------|
 |-------14-----------------|-14-12------13s12p10-12-12-|
 |--------------------------|---------------------------|

|
 
 | PM---------------------------------------------------

| E E E E E E E E E E E E E E E E
 
 |--------------------------|---------------------------|
 |--------------------------|---------------------------|
 |--------------------------|---------------------------|
 |--------------------------|---------------------------|
 |--------------------------|---------------------------|
 |--0--0--0--0---0--0--0--0-|--0--0--0-0-----0--0--0--0-|

~~~~~~~~~
E E S S E E E E E +Q Q H
 
 |----------------------------|----------------------|
 |----------------------------|----------------------|
 |----------------------------|----------------------|
 |----------------------------|----------------------|
 |-12-12-13p12p10-12-10-12-10-|-(10)-----------------|
 |----------------------------|----------------------|

|
 
 |-----------------------------------------------|

| E E E E E E E E E E E E E E E E
 
 |----------------------------|----------------------|
 |----------------------------|----------------------|
 |----------------------------|----------------------|
 |----------------------------|----------------------|
 |----------------------------|----------------------|
 |--0--0--0-----0--0--0--0--0-|---0--0-0-0-0-0-0-0---|

~~~~~~~ ~~~~~~~
E +E E E +Q E E +E E E E +Q E E
 
 |------------15-------------------|------15-----------------------|
 |---------------------------------|-------------------------------|
 |-14b16-(14)----12-(12)-----14b16-|-(14)----14-12-(12)---x-14b16==|
 |---------------------------------|-------------------------------|
 |---------------------------------|-------------------------------|
 |---------------------------------|-------------------------------|

|
 
 | PM--------------------------------------------------------------

| E E E E E E E E E E E E E E E E
 
 |---------------------------------|-------------------------------|
 |---------------------------------|-------------------------------|
 |---------------------------------|-------------------------------|
 |---------------------------------|-------------------------------|
 |---------------------------------|-------------------------------|
 |--0------0---0--0---0--0-0--0----|---0---0--0--0---0--0-0--0-----|
 |----3----| |---3---|

[+E] [E] [E] [+E] [E] [E] [E] [E] [E] [E] [E] [E] [+E] [E] [B]  
 
 |------15-------------------------------|-------------------------|
 |---------------------------------------|-------------------------|
 |-(14)----14r(14)---12-14-14-15p14p==12-|-14-12b13-(12)-----------|
 |---------------------------------------|-------------------------|
 |---------------------------------------|-------------------------|
 |---------------------------------------|-------------------------|

|
 
 |---------------------------------------------------------------|

| E E E E E E E E E E E E E E E E
 
 |---------------------------------------|-------------------------|
 |---------------------------------------|-------------------------|
 |---------------------------------------|-------------------------|
 |---------------------------------------|-------------------------|
 |---------------------------------------|-------------------------|
 |---0---0--0------0-----0--0--0----0----|--0--0------0--0-0-0-0-0-|

~~~~~~~ ~~~~~~~
E +E E E +Q Q E +E E E +Q. E
 
 |------------15---------------|---------------------------------|
 |-----------------------------|------------16-------------------|
 |-14b16-(14)----12-(12)-------|-14b16-(14)----12-(12)-----14b16-|
 |-----------------------------|---------------------------------|
 |-----------------------------|---------------------------------|
 |-----------------------------|---------------------------------|

|
 
 | PM------------------------------------------------------------

| E E E E E E E E E E E E E E E E
 
 |-----------------------------|---------------------------------|
 |-----------------------------|---------------------------------|
 |-----------------------------|---------------------------------|
 |-----------------------------|---------------------------------|
 |-----------------------------|---------------------------------|
 |--0------0---0--0---0--0-0-0-|--0------0---0--0---0--0-0--0----|

+E E E E a E E E E E +Q. +Q. +E
 
 |------15----------------------|-------------------------------|
 |---------------------16-------|-------------------------------|
 |-(14)----14-14-14s16----14p12-|-14b15==(14)-----(14)r====(14)-|
 |------------------------------|-------------------------------|
 |------------------------------|-------------------------------|
 |------------------------------|-------------------------------|

|
 
 |---------------------------------------------------------|

| E E E E E E E E E E E E E E E E
 
 |------------------------------|-------------------------------|
 |------------------------------|-------------------------------|
 |------------------------------|-------------------------------|
 |------------------------------|-------------------------------|
 |------------------------------|-------------------------------|
 |---0---0--0--0-----0--0--0--0-|--0-------0--0-0---0--0-0---0--|

E Q. Q E E E E E E S S E E E
 
 |-----------------------|----------------------------|
 |-----------------------|----------------------------|
 |-12--------------------|----------12h13p12h13-12----|
 |----14------14---------|-12-12h14----------------14-|
 |-----------------12h14-|----------------------------|
 |-----------------------|----------------------------|

|
 
 | PM-------------------------------------------------

| E E E E E E E E E E E E E E E E
 
 |-----------------------|----------------------------|
 |-----------------------|----------------------------|
 |-----------------------|----------------------------|
 |-----------------------|----------------------------|
 |-----------------------|----------------------------|
 |--0--0--0-0--0-0--0--0-|--0--0--0--0--0-----0--0--0-|

~~~~~~~~~~~~~~~~~~~~
E E E E E Q E +H +E E E E
 
 |------------------------|--------------------------|
 |-------------12-15---12-|-(12)-------(12)-12-12-12-|
 |-12-14s16-15------------|--------------------------|
 |------------------------|--------------------------|
 |------------------------|--------------------------|
 |------------------------|--------------------------|

|
 
 |------------------------------------------------|

| E E E E E E E E E E E E E E E E
 
 |------------------------|--------------------------|
 |------------------------|--------------------------|
 |------------------------|--------------------------|
 |------------------------|--------------------------|
 |------------------------|--------------------------|
 |--0--0--0--0--0--0-0--0-|---0--0-0-0---0---0--0--0-|

E E E E E E E E E E S S E E E E +E
 
 |-15p12----12-------------|----------------------------------|
 |-------12----15p12-------|----------------------------------|
 |-------------------14-14-|-14-14-15p14p12-14p12-14b16==(14)-|
 |-------------------------|----------------------------------|
 |-------------------------|----------------------------------|
 |-------------------------|----------------------------------|

|
 
 | PM---------------------------------------------------------

| E E E E E E E E E E E E E E E E
 
 |-------------------------|----------------------------------|
 |-------------------------|----------------------------------|
 |-------------------------|----------------------------------|
 |-------------------------|----------------------------------|
 |-------------------------|----------------------------------|
 |--0--0--0--0--0--0--0--0-|--0--0--0-----0--0--0--0-------0--|

~~~~~~~~~
E E +E E E E E E +W
 
 |-15------------------------|--------------------|
 |---------------------------|--------------------|
 |----14r(14)-12-14-12-14-12-|-(12)---------------|
 |---------------------------|--------------------|
 |---------------------------|--------------------|
 |---------------------------|--------------------|

|
 
 |----------------------------------------------|

| E E E E E E E E E E E E E E E E
 
 |---------------------------|--------------------|
 |---------------------------|--------------------|
 |---------------------------|--------------------|
 |---------------------------|--------------------|
 |---------------------------|--------------------|
 |--0--0---0---0--0--0--0--0-|---0--0-0-0-0-0-0-0-|
 |----3-----|

Q. E +Q Q +E Q. E E E E E
 
 |--------------------------------|-----------------------------------|
 |--------------------------------|-----------------------------------|
 |-14b16-----14b16-(14)---14b16---|-(14)-14b16-----14b16r14p==12------|
 |--------------------------------|------------------------------14---|
 |--------------------------------|-----------------------------------|
 |--------------------------------|-----------------------------------|

|
 
 | PM-----------------------------------------------------------------

| E E E E E E E E E E E E E E E E
 
 |--------------------------------|-----------------------------------|
 |--------------------------------|-----------------------------------|
 |--------------------------------|-----------------------------------|
 |--------------------------------|-----------------------------------|
 |--------------------------------|-----------------------------------|
 |--0----0-0--0------0--0--0----0-|---0---0----0-0--0-------0-----0-0-|
 |----3-----|

Q. E +Q Q +E Q. E E E E E
 
 |--------------------------------|-----------------------------------|
 |--------------------------------|-----------------------------------|
 |-14b16-----14b16-(14)---14b16---|-(14)-14b16-----14b16r14p==12------|
 |--------------------------------|------------------------------14---|
 |--------------------------------|-----------------------------------|
 |--------------------------------|-----------------------------------|

|
 
 |------------------------------------------------------------------|

| E E E E E E E E E E E E E E E E
 
 |--------------------------------|-----------------------------------|
 |--------------------------------|-----------------------------------|
 |--------------------------------|-----------------------------------|
 |--------------------------------|-----------------------------------|
 |--------------------------------|-----------------------------------|
 |--0----0-0--0------0--0--0----0-|---0---0----0-0--0-------0-----0-0-|

~~~~~~~~~~~~~
Q. E +Q Q +E Q. E S S E E
 
 |----------------------------|-------------------------------|
 |----------------------------|-------------------------------|
 |-14b16---14b16-(14)--14b16--|-(14)-14b16---14b16r14p12------|
 |----------------------------|--------------------------14---|
 |----------------------------|-------------------------------|
 |----------------------------|-------------------------------|

|
| Q. E +Q Q +E Q. Q Q
 
 |----------------------------|-------------------------------|
 |----------------------------|-------------------------------|
 |----------------------------|-------------------------------|
 |----------------------------|-------------------------------|
 |----------------------------|-------------------------------|
 |--0-------1-----(1)---2-----|--(2)--3-------4-----------5---|

Q. E +Q Q +E Q. E S S E E
 
 |----------------------------|---------------------------------|
 |----------------------------|---------------------------------|
 |-14b16---14b16-(14)--14b16--|-(14)-14b16---14b16r14p12--------|
 |----------------------------|--------------------------14-----|
 |----------------------------|---------------------------------|
 |----------------------------|---------------------------------|

|
| Q. E +Q Q +E Q. Q Q
 
 |----------------------------|---------------------------------|
 |----------------------------|---------------------------------|
 |----------------------------|---------------------------------|
 |----------------------------|---------------------------------|
 |----------------------------|---------------------------------|
 |--6-------7-----(7)---8-----|--(8)--9------10----------11-----|

|3-|
Q. E +E +E Q +E Q. Q E E E
 
 |---------------------------------|-------------------------|
 |---------------------------------|-------------------------|
 |-14b16---14b16==(14)r(14)-14b16--|-(14)-14b16---14p12------|
 |---------------------------------|--------------------14---|
 |---------------------------------|-------------------------|
 |---------------------------------|-------------------------|

|
| Q. E +Q Q +E Q. Q Q
 
 |---------------------------------|-------------------------|
 |---------------------------------|-------------------------|
 |---------------------------------|-------------------------|
 |---------------------------------|-------------------------|
 |---------------------------------|-------------------------|
 |--0-------1------(1)-------2-----|--(2)--3-------4-----5---|

Q. E +Q Q +E Q. S +S +S S Q
 
 |----------------------------|----------------------------------------|
 |----------------------------|----------------------------------------|
 |-14b16---14b16-(14)--14b16--|-(14)-14b16---14b16==(14)r(14)p12-------|
 |----------------------------|----------------------------------14----|
 |----------------------------|----------------------------------------|
 |----------------------------|----------------------------------------|

|
| Q. E +Q Q +E Q. Q Q
 
 |----------------------------|----------------------------------------|
 |----------------------------|----------------------------------------|
 |----------------------------|----------------------------------------|
 |----------------------------|----------------------------------------|
 |----------------------------|----------------------------------------|
 |--6-------7-----(7)---8-----|--(8)--9------10------------------11----|

~~~~~~~~~~~~~~
a Q H. H E E E E +Q +H.
 
 |-------------------------|---------------------|-----------------------|
 |-------------------------|---------------------|-----------------------|
 |---------14b16-----------|-14------------12-12-|-(12)---(12)-----------|
 |-12h14-------------------|------------14-------|-----------------------|
 |-------------------------|---------------------|-----------------------|
 |-------------------------|---------------------|-----------------------|

| W
|
 
 | PM-----------------------------------------------------------------

| E E E E E E E E E E E E E E E E E E E E E E E E
 
 |-------------------------|---------------------|-----------------------|
 |-------------------------|---------------------|-----------------------|
 |-------------------------|---------------------|-----------------------|
 |-------------------------|---------------------|-----------------------|
 |-------------------------|---------------------|-----------------------|
 |-----0-0--0----0-0-0-0-0-|--0-0-0-0-0--0--0--0-|---0--0---0--0-0-0-0-0-|

~~~~~~
[+B] [E] [E] [E] [E] [+E] [E] [E] [E] [+E] [E] [E] [E]  
 
 |-----------------------|------------------------------|
 |-----------------------|------------------------------|
 |-(12)------------12-12-|-(12)-0-12-12-(12)----12-12---|
 |--------------14-------|-------------------14---------|
 |-----------------------|------------------------------|
 |-----------------------|------------------------------|

|
 
 |-------------------------------------------------|

| E E E E E E E E E E E E E E E E
 
 |-----------------------|------------------------------|
 |-----------------------|------------------------------|
 |-----------------------|------------------------------|
 |-----------------------|------------------------------|
 |-----------------------|------------------------------|
 |---0--0-0-0-0--0--0--0-|---0--0--0--0---0---0--0--0---|

~~~~
+E E E E +E E E E +Q +Q +S E. E E
 
 |---------------------------------|----------------------------12---|
 |---------------------------------|---------------------------------|
 |-(12)----12-12-(12)----12-14b15==|=(14)b16---(14)---(14)p0---------|
 |------14------------14-----------|---------------------------------|
 |---------------------------------|---------------------------------|
 |---------------------------------|---------------------------------|

|
 
 | PM---------------------------------------------------------------

| E E E E E E E E E E E E E E E E
 
 |---------------------------------|---------------------------------|
 |---------------------------------|---------------------------------|
 |---------------------------------|---------------------------------|
 |---------------------------------|---------------------------------|
 |---------------------------------|---------------------------------|
 |---0---0--0--0---0---0--0--0-----|---0-----0---0--0---0-----0--0-0-|

Q. E +Q Q E E E E E Q E
 
 |------------------------|-----------------------|
 |------------------------|-----------------------|
 |-12---------------------|-------12p0-12-12---12-|
 |---------14-(14)---12---|-12h14-----------------|
 |------------------------|-----------------------|
 |------------------------|-----------------------|

|
 
 |---------------------------------------------|

| E E E E E E E E E E E E E E E E
 
 |------------------------|-----------------------|
 |------------------------|-----------------------|
 |------------------------|-----------------------|
 |------------------------|-----------------------|
 |------------------------|-----------------------|
 |--0--0-0--0---0--0--0-0-|--0--0--0-0--0--0-0--0-|

[+B] [E] [E] [E] [E] [+E] [E] [E] [E] [+E] [E] [E] [E]  
 
 |----------------------|----------------------------|
 |----------------------|----------------------------|
 |-(12)----------x-x-12-|-(12)p0-12-12-(12)----12-12-|
 |------------14--------|-------------------14-------|
 |----------------------|----------------------------|
 |----------------------|----------------------------|

|
| W W
 
 |----------------------|----------------------------|
 |----------------------|----------------------------|
 |----------------------|----------------------------|
 |----------------------|----------------------------|
 |----------------------|----------------------------|
 |----------------------|----------------------------|

|
| Gtr IV
 
 | PM-----------------------------------------------

| E E E E E E E E E E E E E E E E
<br /

Important: The song above is NOT stored on the Chordie server. The original song is hosted at www.guitaretab.com. Chordie works as a search engine and provides on-the-fly formatting. Chordie does not index songs against artists'/composers' will. To remove this song please click here.

Text color:
Chord color:
Chord grids: 
Font size:    
Page size: 

B E
Rate #1 of 3 versions

Jango Player

Login - add to songbook

SHARE PAGE  



You need to log in to post comments