Guitar Tabs, Chords and Lyrics
Server problems seems to be fixed. Chordie has been experiencing problems with songs disappearing. These issues now seems to be fixed, but still verifying the fix. If you find anything strange, please email admin@chordie.com.


She's Gone  Foghat

 
 --------------------------------------------------------------------|

She's Gone by Foghat
 
 |-------------------------------------------------------------------|

Tabbed by:Ross Music by- Lonesome Dave Peverett/Rod Price
Email:jcramson@gmail.com Knee Trembler Music-ASCAP
Tuning:standard
(intro) 3x
 
 e|-------7------|------7---------7------------7--------|
 B|-------8-----7|------8---------8-----7------8--------|
 G|-------7-----7|------7---------7-----7------7--------|
 D|-0-0---0--0--0|--0---0--0-0-0--0--0--0--0---0--0-0-0-|
 A|--------------|--------------------------------------|
 E|--------------|--------------------------------------|-
 E|--7-----------7----7-7----5-|
 B|--8-----7-----8----8-8----7-|
 G|--7-----7-----7----7-7----7-|
 D|--0--0--0--0--0-0--0-0-0--0-|
 A|----------------------------|
 E|----------------------------|

S[D]tandin by the window
(fill 1)
 
 E|--------10----|
 B|--10h12----13~|
 G|--------------|
 D|--------------|
 A|--------------|
 E|--------------|

S[D]tarin through the rain
(Fill 2)
 
 E|---19-17-----------------|
 B|-----------17br18-17-----|
 G|--------19-----------19~-|
 D|-------------------------|
 A|-------------------------|
 E|-------------------------|

I[D] built my world around her
 
 E|--------10----|
 B|--10h12----13~|
 G|--------------|
 D|--------------|
 A|--------------|
 E|--------------|

N[D]ow I'm on my way again
(Riff 1 used throughout song)
 
 e|--------7-----------------7-7-----5---------|
 B|--------8-----7-----8-----8-8-----7---------|
 G|--------7-----7-----9-----7-7-----7---------|
 D|--0-0---0--0--0--0--0--0--0-0--0--0-0-0-0-0-|
 A|--------------------------------------------|
 E|--------------------------------------------|

(Riff 1) (Riff 1)
Cos She's Gone, Well she's gone
(riff 1) C G D
Well she's gone, well she's gone
(fill 3)
 
 E|------------------------|
 B|----------10h12-10------|
 G|-9h11-9-7------------7~-|
 D|-------------------7----|
 A|------------------------|
 E|------------------------|

Sh[D]e's takin all my money (fill 1)
Sh[D]e didn't even leave a dime (fill 2)
O[D]nly one thing to do (fill 1)
St[D]ay loaded all the time
(riff 1) (riff 1)
Well she's gone, Well she's gone
(riff 1) C G D
Well she's gone, well she's gone
(fill 3)
 
 E|-------------------------|
 B|----------10h12-10-------|
 G|-9h11-9-7-------------7~-|
 D|-------------------7-----|
 A|-------------------------|
 E|-------------------------|
 E|--7--7--7--5---------------------------|
 B|--8--8--8--7---------------------------|
 G|--7--7--7--7---------------------------|
 D|-----0-----0---------------------------|
 A|---------------------------------------|
 E|---------------------------------------|

I'm gonna get me someone
 
 E|--7--7--15--14---------------------------|
 B|--8--8--12--15---------------------------|
 G|--7--7--12--14---------------------------|
 D|-----0-----------------------------------|
 A|-----------------------------------------|
 E|-----------------------------------------|

Get high forget all my troubles
 
 E|--7--7--7--5---------------------------|
 B|--8--8--8--7---------------------------|
 G|--7--7--7--7---------------------------|
 D|-----0-----0---------------------------|
 A|---------------------------------------|
 E|---------------------------------------|

You know that girl was so fine
 
 E|----------8-----8-----10-----5---------|
 B|----------8-----8------8-----7---------|
 G|----------9-----0------7-----7---------|
 D|---------10-----0------0-----0---------|
 A|---------------10----------------------|
 E|---------------------------------------|

But she's gone, gone gone gone
solo with (riff 1)-(4x) then Key change below
 
 E|--------------------------------------|
 B|--14-12-14-14-12-14-14-12-14-14-14-12-|
 G|--14-13-14-14-13-14-14-13-14-14-14-13-|
 D|--------------------------------------|
 A|--------------------------------------|
 E|--------------------------------------|
 E|--------------------------------------|
 B|-19-17-19-19-17-19-19-17-19-19-19-17--|
 G|-19-18-19-19-18-19-19-18-19-19-19-18--|
 D|--------------------------------------|
 A|--------------------------------------|
 E|--------------------------------------|

Solo Pick Harmonics
 
 E|----------------------------------------------|
 B|----------------------------------------------|
 G|-12b-hold-12-1214--12-1214--12-1214--12-1214--|
 D|----------------------------------------------|
 A|----------------------------------------------|
 E|----------------------------------------------|
 E|-----------------------------------------------|
 B|-----------------------------------------------|
 G|-12p10-------10--12b--12-10--12b-hold--12-1214-|
 D|-------12-12-----------------------------------|
 A|-----------------------------------------------|
 E|-----------------------------------------------|
 E|-----------------------------------------------|
 B|-----------------------------------------------|
 G|-12-1214--12--1214--12-1214-12--1214--12-1214--|
 D|-----------------------------------------------|
 A|-----------------------------------------------|
 E|-----------------------------------------------|
 E|-----------------------------------------------|
 B|-----------------------------------------------|
 G|-12-1214~--12-10---------14-16--14\12----12~---|
 D|-----------------12-12----------------14-------|
 A|-----------------------------------------------|
 E|-----------------------------------------------|
 E|-----------------------------------------------|
 B|----------13-15-15\17-15\13----15\17-15\13-----|
 G|----12-13-------------------14-------------14--|
 D|-14--------------------------------------------|
 A|-----------------------------------------------|
 E|-----------------------------------------------|
 E|--------------------------------------------------|
 B|-15\17-15\13----15\17-15\13----15\17-15\13--------|
 G|-------------14-------------14-------------14-----|
 D|--------------------------------------------------|
 A|--------------------------------------------------|
 E|--------------------------------------------------|
 E|--------------------------------------------------|
 B|-15\17-15\13----15\17-15\13----15\17-15\13--------|
 G|-------------14-------------14-------------14-----|
 D|--------------------------------------------------|
 A|--------------------------------------------------|
 E|--------------------------------------------------|
 E|----------------17--------------------------------|
 B|-15\17-15\13--------------------------------------|
 G|-------------14-----------------------------------|
 D|--------------------------------------------------|
 A|--------------------------------------------------|
 E|--------------------------------------------------|

D[D]ays passin slowly (fill 1)
N[D]ights they never end
S[D]he's right about the future
I'm left and now i'm looking for a woman and a friend
she's gone(riff 1) she's gone(riff 1)
well she's gone(riff 1) she's gone(riff 1)
well she's gone(riff 1) yea yea she's gone(riff 1)
It's my turn to cry(riff 1)
Cos she's gon[C]e[G] [D]
ending
 
 E|------------------------------------------17h19-17--------|
 B|-----------10h12-10-----------17h19-17-15-------------15~-|
 G|--9h11-9-7------------7~---------------------------14-----|
 D|--------------------7-------------------------------------|
 A|----------------------------------------------------------|
 E|----------------------------------------------------------|

(Enjoy)
************************************
^ Hold
| / slide up
| \ slide down
| h hammer-on
| p pull-off
| ~ vibrato
| + harmonic
| x Mute note
| b Bend
| pb Pre-bend
| br Bend release
| pbr Pre-bend release
| brb Bend release bend
************************************

Important: The song above is NOT stored on the Chordie server. The original song is hosted at www.guitaretab.com. Chordie works as a search engine and provides on-the-fly formatting. Chordie does not index songs against artists'/composers' will. To remove this song please click here.

Text color:
Chord color:
Chord grids: 
Font size:    
Page size: 

C D G
Rate #1 of 2 versions

Jango Player

Login - add to songbook

SHARE PAGE  



You need to log in to post comments