Guitar Tabs, Chords and Lyrics
Server problems seems to be fixed. Chordie has been experiencing problems with songs disappearing. These issues now seems to be fixed, but still verifying the fix. If you find anything strange, please email admin@chordie.com.


Nothin' I Won't Do  Foghat

Nothin' I Won't Do
by Foghat
From the album Energized
Music by Peverett/Price-Knee Trembler Music-ASCAP
Tabbed by: Nick/Ross
email:jcramson@gmail.com (Another very good song by Foghat)
Tuning :Standard
(Intro)
 
 E|----------------------------|--------------------------------------|
 B|----------------------------|--------------------------------------|
 G|-------------5h7p5----------|-------------5h7p5-------0-2p0------2-|
 D|---7---5-7---------7---5-7~-|---7---5-7---------7~----------2----2-| (2x)
 A|-0---0-----0---------0------|-0---0-----0---------------------3--0-|
 E|----------------------------|--------------------------------------|
 E|---------------------------------|------------------------------------|
 B|---------------------------------|------------------------------------|
 G|-------------5h7p5-------5h7p5---|-------------5h7p5-----0-2p0------2-|
 D|---7---5-7--------7~-----------7~|---7---5-7---------7~--------2----2-|
 A|-0---0-----0---------0-----------|-0---0-----0-------------------3--0-|
 E|---------------------------------|------------------------------------|
 E|-------------------5-------5-|-------------------5-----------|
 B|-----------------------------|-------------------------------|
 G|-------------5h7p5---5h7p5---|-------------5h7p5----7b9-7-5--|
 D|---7---5-7-------------------|---7---5-7-------------------7-|
 A|-0---0-----0-----------------|-0---0-----0-------------------|
 E|-----------------------------|-------------------------------|

(Verse Riff in A)
[A7] [A6] [A] [A7] [A6] [A]  
 
 E|----------------------|-----------|
 B|--5---3--2---5---3--2-|-----------|
 G|--x---x--2---x---x--2-|-----------|
 D|--5---4--2---5---4--2-|-----------| (4x)
 A|0-0-0-0--0-0-0-0-0--0-|-0-3-0---0-|
 E|----------------------|-------3---|

A (w/Verse Riff)
I don't care what you need girl
[A]A lover or a real good friend
[A]If you're lonely, you need somebody
[A]I'll be with you 'til the end
[A] Nothin' I won't[D] do[Dsus4] [D]
D A (w/Main Riff)
Ain't nothin' I won't do
[A]Ain't nothin' I won't [D]do[Dsus4] [D]
[D]I'll give it all to [E]you
I know you ain't no angel
You're sure goin' do some harm,
I love you baby, you must be crazy (same as verse above)
To stick a needle in your arm
Nothin' I won't do,
Ain't nothin' I won't do
Ain't nothin' I won't do,(same as above)
I'll give it all to you
Hey-hey
(Guitar Solo (1) at 1:39 - over one verse and one chorus
 
 E|---------------------------------------|--------------------------|
 B|---------------------------------------|--------------------------|
 G|-12-12-12--12-12-12--12-12-12--12-12-12|-12-11-9------------------|
 D|---------------------------------------|---------12-11~-----------|
 A|---------------------------------------|-----------------12-10-7--|
 E|---------------------------------------|--------------------------|
 E|-------------------|-------------------|------------------|
 B|-------------------|-------------------|------------------|
 G|-------------------|---------6---------|----------9-------|
 D|-------------------|-----7------9-7-9-7|-7--7-7-7---7---7-|
 A|-5-4~-4-5-4---4----|-6-7---7-----------|--------------7---|
 E|------------5---5~-|-------------------|------------------|
 E|-12----12---------|------------------10-10-10-10-10-10|---------|
 B|----10----10---10-|---13-13-13-13-13------------------|-13-13b15|
 G|-------------9----|-----------------------------------|---------|
 D|------------------|-----------------------------------|---------|
 A|------------------|-----------------------------------|---------|
 E|------------------|-----------------------------------|---------|
 E|-------------------|----------------------------------|
 B|-10-10-14p10----10~|-10----10----12b13-12-10h12p10----|
 G|-------------12----|----11----11-------------------11~|
 D|-------------------|----------------------------------|
 A|-------------------|----------------------------------|
 E|-------------------|----------------------------------|
 B|---------------14b15-15-|-------------------------------------------|
 G|-10-10--13p10-----------|-10--10-10--13p10--10-13p10--10-13p10------|
 D|------------------------|-----------------11--------11--------11----|
 A|------------------------|-------------------------------------------|
 E|------------------------|-------------------------------------------|
 E|----------------------|----------------|-10s12-12-------------------|
 B|-10-13p10--10-13p10---|-10-10-10-10-13-|----------------------------|
 G|---------11--------11-|----------------|----------7s9-9-------------|
 D|----------------------|----------------|----------------------------|
 A|----------------------|----------------|----------------5s7-7-----7-|
 E|----------------------|----------------|----------------------0-0---|

Walkin' on a tightrope,
One slip and you're bound to fall
Slow down baby, watch your step (same as verse above)
Don't run before you learn to crawl
Nothin' I won't do,
Ain't nothin' I won't do (same as above)
Ain't nothin' I won't do,
I'll give it all to you
(Guitar break)
 
 E|-------------------|
 B|-------------------|
 G|-------------------|
 D|-7--5--2---------2-|
 A|---------6--5----0-|
 E|--------------8----|

(Intro Riff, change in E)
 
 E|-----------------------------|------------------------------------|
 B|-----------------------------|------------------------------------|
 G|-----------------------------|------------------------------------| (2x)
 D|--------------5h7p5----------|--------------5h7p5----0-2p0-----2--|
 A|---7---5-7----------7---5-7~-|---7---5-7----------7~-------2---2--|
 E|-0---0-----0----------0------|-0---0-----0-------------------3-0--|
 E|---------------------------------|----------------------------------|
 B|---------------------5---------5-|--------------------5-------------|
 G|---------------------------------|----------------------------------|
 D|--------------5h7p5------5h7p5---|--------------5h7p5---0-2p0-----2-|
 A|---7---5-7-----------------------|---7---5-7------------------2---2-|
 E|-0---0-----0---------------------|-0---0-----0------------------3-0-|
 E|---------------------------------|-------------------------------|
 B|--------------------5---------5--|--------------------5----------|
 G|---------------------------------|-------------------------------|
 D|-------------5h7p5------5h7p5----|--------------5h7p----7b9-7-5---|
 A|---7---5-7-----------------------|---7---5-7-------------------7-|
 E|-0---0-----0---------------------|-0---0-----0-------------------|

(Guitar solo at 2:59)
 
 E|------------------------|---------|---------|
 B|-----5------------------|---------|---------|
 G|------------------------|---------|---------|
 D|-7b9----9-7-5-7-7s9-9-9-|-7-5--5--|---------|
 A|------------------------|-----7--7|-5-7-5-7~|
 E|------------------------|---------|---------|
 E|-------------------------------------|
 B|-------------------------------------|
 G|-------------------------------------|
 D|-7-7b9-7p5---5-5~---7-7b9-7p5---5-5~-|
 A|-----------7------7-----------7------|
 E|-------------------------------------|
 E|-----------------------------------|
 B|-------------------------------5---|
 G|-----------------------------------|
 D|---7-7b9-7p5---7b9-7p5---7-7b9---9-|
 A|-7-----------7---------7-----------|
 E|-----------------------------------|
 E|---------|-14-------------------------------|
 B|---------|-------8----8---8-8~--8-8~----8-10|
 G|---------|-----9---9----9-------------9-----|
 D|-5---5---|----------------------------------|
 A|---7---7~|----------------------------------|
 E|---------|----------------------------------|
 E|-------------------------12---|
 B|-10b12-12~-12-10-8---10b----8~|
 G|-------------------9----------|
 D|------------------------------|
 A|------------------------------|
 E|------------------------------|
 E|--------------------7-9b10-10~|
 B|---8-10b12-12~----8-----------|
 G|-9----------------------------|
 D|------------------------------|
 A|------------------------------|
 E|------------------------------|
 E|-----------------------------|----------------|
 B|---8-10b12-12--12-10-8---8-8~|-----------8-10-|
 G|-9---------------------9-----|-7-7-7-7-9------|
 D|-----------------------------|----------------|
 A|-----------------------------|----------------|
 E|-----------------------------|----------------|
 E|-------12----------------------|
 B|-10b12----10b12-10-8---8-10b12-|
 G|---------------------9---------|
 D|-------------------------------|
 A|-------------------------------|
 E|-------------------------------|
 E|--------------------12-------------------|
 B|-10b12-10-9---10b12----10b12-10-9---8-10-|
 G|------------9---------------------9------|
 D|-----------------------------------------|
 A|-----------------------------------------|
 E|-----------------------------------------|
 E|-------------------------------|-----------------|
 B|--10b12-10b12-10b12-10-8-------|--8---------8-10-|
 G|-----------------------------9-|-----9~--9-------|
 D|-------------------------------|-----------------|
 A|-------------------------------|-----------------|
 E|-------------------------------|-----------------|
 E|-------12-----------------|
 B|-10b12----10-8---8---8-10-|
 G|---------------9---9~-----|
 D|--------------------------|
 A|--------------------------|
 E|--------------------------|
 E|-------12-------------------|
 B|-10b12----10-8---8---8--10--|
 G|---------------9---9--------|
 D|----------------------------|
 A|----------------------------|
 E|----------------------------|
 E|-------------------------------|-------------|
 B|-10b12-12-12-12-10b12-10---8---|-----8-------|
 G|-------------------------9---9-|-7-9----9~-9-|
 D|-------------------------------|-------------|
 A|-------------------------------|-------------|
 E|-------------------------------|-------------|
 E|-----------------------------|---------------|
 B|-10p8---10p8---10p8---10p8---|-10b12----8----|
 G|------9------9------9------9-|-------9-----9~|
 D|-----------------------------|---------------|
 A|-----------------------------|---------------|
 E|-----------------------------|---------------|
 E|-------------------------|
 B|-------------------------|
 G|-9-7---9-7---9-7---9-7---|
 D|-----9-----9-----9-----9-|
 A|-------------------------|
 E|-------------------------|
 E|-------------------|-----------------------------|
 B|-------------------|-----------------------------|
 G|-9--7--------------|-5s7~-7~---7-----------------|
 D|-------9--8--7-----|--------------9-7h9--7---7---|
 A|----------------10-|-----------------------9---9-|
 E|-------------------|-----------------------------|
 E|------------------------|
 B|------------------------|
 G|-----------9------------|
 D|-----7--11---11s9-7-9-7-|
 A|-7h9--------------------|
 E|------------------------|
 E|-----------------------------|-----------------|---------------------|
 B|-----------------------------|-----------------|---------------------|
 G|-----------------------------|-2--2----2--2----|-2---------------2-2-|
 D|-9b11-9--7-9-7---7-----------|-------4-------4-|----4--2--2--2-4-----|
 A|---------------9---9-7-4-2-0-|-----------------|---------------------|
 E|-----------------------------|-----------------|---------------------|
 E|---------5----------------|-------5---------------|
 B|--------------------------|-----------------------|
 G|----4b6-----6p4-2-------2-|--4b6-----6p4-2------2-|
 D|-------------------2-4----|-----------------2-4---|
 A|--------------------------|-----------------------|
 E|--------------------------|-----------------------|
 E|------5-----------------|-----------------------|
 B|------------------------|-----------------------|
 G|--4b6---6p4-2-4-2---2---|-------4--2---2-2-2--4-|
 D|------------------4---4-|-2-4-2-----------------|
 A|------------------------|-----------------------|
 E|------------------------|-----------------------|
 (--------------Artificial/Pick Harmonic---------)
 E|------------------------------|-----------------------|
 B|------------------------------|-----------------------|
 G|-4b6--4b6--4b6--4b6--4b6--4b6-|-4b6--4b6--4b6--6b7--6-|
 D|------------------------------|-----------------------|
 A|------------------------------|-----------------------|
 E|------------------------------|-----------------------|
 E|------------------|----------------------------|
 B|------------------|-------5--------------------|
 G|-2--2-----2--2--4-|--4b6-----6--4--2~-2~-2-2-4-|
 D|-------4----------|----------------------------|
 A|------------------|----------------------------|
 E|------------------|----------------------------|
 E|-----9----9----9----9----9----9-|----7---7----7-----5------|
 B|--------------------------------|--------------------------|
 G|-4s9----9----9----9----9----9---|-7----7----7----6-----4b6-|
 D|--------------------------------|--------------------------|
 A|--------------------------------|--------------------------|
 E|--------------------------------|--------------------------|
 E|-----9---9---9----9---9---9---7---7---7---5-----|
 B|------------------------------------------------|
 G|-4s9---9---9----9---9---9---7---7---7---6---4b6-|
 D|------------------------------------------------|
 A|------------------------------------------------|
 E|------------------------------------------------|
 E|----------------------------|---------------------|
 B|--7h8-8-8-8-8-8-7h8-8-8-8-8-|-7h8-7-5-7-5-------5-|
 G|----------------------------|---------------5-6---|
 D|----------------------------|---------------------|
 A|----------------------------|---------------------|
 E|----------------------------|---------------------|
 E|---------------------------|-----------------------|
 B|-7h8-8-8-8-8-8-7h8-8-8-8-8-|-7h8-7-5-7-5--5---7-10-|
 G|---------------------------|----------------6------|
 D|---------------------------|-----------------------|
 A|---------------------------|-----------------------|
 E|---------------------------|-----------------------|
 E|----------------------|-------------------|------------|
 B|-12h14-14-14-14-14-14-|-12h14-14-14-14-14-|-12H14-12-10|
 G|----------------------|-------------------|------------|
 D|----------------------|-------------------|------------|
 A|----------------------|-------------------|------------|
 E|----------------------|-------------------|------------|
 E|-------------------9-|-10h12-12-12-12-12-12-10h12-12-12-12-12-12|
 B|-12-10-10-10----10---|------------------------------------------|
 G|-------------11------|------------------------------------------|
 D|---------------------|------------------------------------------|
 A|---------------------|------------------------------------------|
 E|---------------------|------------------------------------------|
 E|-10h12-12-12-10h12-12-12-|-10h12-12-12-10h12-12-12-|
 B|-------------------------|-------------------------|
 G|-------------------------|-------------------------|
 D|-------------------------|-------------------------|
 A|-------------------------|-------------------------|
 E|-------------------------|-------------------------|
 E|-10h12~~12-------10b12-10b12-10b12-10b12-|-10-8----------------|
 B|-----------5-----------------------------|------10-12h13~12-10-|
 G|-----------------------------------------|---------------------|
 D|--------------7--------------------------|---------------------|
 A|-----------------------------------------|---------------------|
 E|-----------------------------------------|---------------------|
 E|-----------------------|-----------------8---------------|
 B|---8-8-8-8---8-8-8-8---|--8---8-10-10-10---10-8-10-10-10-|
 G|-----------9---------9-|----9----------------------------|
 D|-----------------------|---------------------------------|
 A|-----------------------|---------------------------------|
 E|-----------------------|---------------------------------|
 E|-10--------------8----------------|-------12---------------------------|
 B|------8-10-10-10---10-12-10----10-|-12b14----12-10----10-10------10-12-|
 G|----9-----------------------11----|----------------11-------9h11-------|
 D|----------------------------------|------------------------------------|
 A|----------------------------------|------------------------------------|
 E|----------------------------------|------------------------------------|
 E|--------------------------|-------------------------|
 B|-12b14-12b14~--12------10-|-12b14-12b14~-12------10-|
 G|------------------9-11----|-----------------9-11----|
 D|--------------------------|-------------------------|
 A|--------------------------|-------------------------|
 E|--------------------------|-------------------------|
 E|-------12-12-------12-12-------12-12--------12-12-|
 B|-12b14-------12b14-------12b14-------12b14--------|
 G|--------------------------------------------------|
 D|--------------------------------------------------|
 A|--------------------------------------------------|
 E|--------------------------------------------------|
 E|----------------------------------|
 B|-12b14-12-10-12-10~10~-10------10-|
 G|--------------------------9-11----|
 D|----------------------------------|
 A|----------------------------------|
 E|----------------------------------|
 E|--------------------------|--------------------------|
 B|-12b14-12b14~--12------10-|-12b14-12b14~--12------10-|
 G|------------------9-11----|------------------9-11----|
 D|--------------------------|--------------------------|
 A|--------------------------|--------------------------|
 E|--------------------------|--------------------------|
 E|-------12-12-------12-12-------12-12-------12-12-|
 B|-12b14-------12b14-------12b14-------12b14-------|
 G|-------------------------------------------------|
 D|-------------------------------------------------|
 A|-------------------------------------------------|
 E|-------------------------------------------------|
 E|----------------------------------|
 B|-12b14-12-10-12-10~10~-10------10-|
 G|--------------------------9-11----|
 D|----------------------------------|
 A|----------------------------------|
 E|----------------------------------|
 E|--------------------------|--------------------------|
 B|-12b14-12b14~--12------10-|-12b14-12b14~--12------10-|
 G|------------------9-11----|------------------9-11----|
 D|--------------------------|--------------------------|
 A|--------------------------|--------------------------|
 E|--------------------------|--------------------------|
 E|-----------------------------------------|
 B|-12b14-12b14-12-10----12b14-12b14-12-10--|
 G|-------------------11------------------11|
 D|-----------------------------------------|
 A|-----------------------------------------|
 E|-----------------------------------------|
 E|------------------------------------|
 B|-12b14-12b14-12-10----10-10------10-|
 G|-------------------11-------9h11----|
 D|------------------------------------|
 A|------------------------------------|
 E|------------------------------------|
 E|------------------------------------|
 B|-12b14-12b14-12-10----10-10------10-|
 G|-------------------11-------9h11----|
 D|------------------------------------|
 A|------------------------------------|
 E|------------------------------------|
 E|------------------------------------|
 B|-12b14-12b14-12-10----10-10------10-|
 G|-------------------11-------9h11----|
 D|------------------------------------|
 A|------------------------------------|
 E|------------------------------------|
 E|-----------------------------------------|
 B|-12b14-12b14-12-10----12b14-12b14-12-10--|
 G|-------------------11------------------11|
 D|-----------------------------------------|
 A|-----------------------------------------|
 E|-----------------------------------------|
 E|------------------------------------|
 B|-12b14-12b14-12-10----10-10------10-|
 G|-------------------11-------9h11----|
 D|------------------------------------|
 A|------------------------------------|
 E|------------------------------------|
 E|---------------|-------------------------------|
 B|--14b15--14b15-|-14b15--12--10-12-10----10--12-|
 G|---------------|---------------------11--------|
 D|---------------|-------------------------------|
 A|---------------|-------------------------------|
 E|---------------|-------------------------------|
 E|-------12-12-------12-12-------------|
 B|-12b14-------12b14-------12-10-12-14-|
 G|-------------------------------------|
 D|-------------------------------------|
 A|-------------------------------------|
 E|-------------------------------------|
 E|-17--------------------|---------------------------|
 B|----14-12-10-12-10~10~-|---------------------------|
 G|-----------------------|--6s7-7~--7----------------|
 D|-----------------------|------------9-7h9-7---7--9-|
 A|-----------------------|--------------------9------|
 E|-----------------------|---------------------------|
 E|---------------------------|----------------------|
 B|---------------------------|----------------------|
 G|-----9-9-9-9-9-9-9-9-9-9-9-|--------------------2-|
 D|-11------------------------|--7--5--2-----------2-|
 A|---------------------------|-----------6--5-----0-|
 E|---------------------------|-----------------8----|

(Verse Riff in A)
[A7] [A6] [A] [A7] [A6] [A]  
 
 E|----------------------|-----------|
 B|--5---3--2---5---3--2-|-----------|
 G|--x---x--2---x---x--2-|-----------|
 D|--5---4--2---5---4--2-|-----------| (2x)
 A|0-0-0-0--0-0-0-0-0--0-|-0-3-0---0-|
 E|----------------------|-------3---|

I saw you buy your ticket
And the fireman rang the bell,
You feel so good, it's just like heaven
Sure gonna give you hell
Nothin' I won't do,
Ain't nothin' I won't do
Ain't nothin' I won't do,
I'll give it all to you
[G]Yey baby, not[D]hin' I won't [A]do,
[G]I'll give you my [D]time, and my money [A]too
[G]You want my love,[D] I'll give it all to [A]you,
[G]You know it's tr[D]ue, do what you want me t[A]oo
 
 E|---------------------------------------|
 B|---------------------------------------|
 G|-------------5h7p5h7p5-----------------|
 D|---7---5-7-------------7---5-7-5-------|
 A|-0---0-----0---------------------7-3-0-|
 E|---------------------------------------| 


Important: The song above is NOT stored on the Chordie server. The original song is hosted at www.guitaretab.com. Chordie works as a search engine and provides on-the-fly formatting. Chordie does not index songs against artists'/composers' will. To remove this song please click here.

Text color:
Chord color:
Chord grids: 
Font size:    
Page size: 

A A6 A7 D Dsus4 E G
Rate #1 of 2 versions

Login - add to songbook

SHARE PAGE  



You need to log in to post comments