Guitar Tabs, Chords and Lyrics
Server problems seems to be fixed. Chordie has been experiencing problems with songs disappearing. These issues now seems to be fixed, but still verifying the fix. If you find anything strange, please email admin@chordie.com.


Trouble, Trouble   Foghat

 
 E|--------15-15~------------15-15~|
 B|-15-18------------15-18---------|
 G|--------------------------------|(1)
 D|--------------------------------|
 A|--------------------------------|
 E|--------------------------------|

 


 (Intro-Rhythm Guitar)


 

 
 E|-----------------------|
 B|-----------------------|
 G|-----------------------|
 D|-3--5-------------3--5-|(1)
 A|-3--5-------------3--5-|
 E|-1--3-------------1--3-|

 


 


 (Intro Lead Guitar) (1/2-bend)


 

 
 E|--------15-15~-----------------------------|
 B|-15-18------------18--15-------------------|
 G|--------------------------17b--17-15-16----|(2)
 D|----------------------------------------17~|
 A|-------------------------------------------|
 E|-------------------------------------------|

 


 (Intro-Rhythm Guitar)


 

 
 E|-------------------------|
 B|-------------------------|
 G|--------------------5----|
 D|-3--5---------------5--5-|(2)
 A|-3--5---------------3--5-|
 E|-1--3------------------3-|

 


 


 (Intro Lead Guitar)


 

 
 E|--------15-15~------------15-15~|
 B|-15-18------------15--18--------|
 G|--------------------------------|(3)
 D|--------------------------------|
 A|--------------------------------|
 E|--------------------------------|

 


 (Intro-Rhythm Guitar)


 

 
 E|-----------------------|
 B|-----------------------|
 G|-----------------------|
 D|-3--5-------------3--5-|(3)
 A|-3--5-------------3--5-|
 E|-1--3-------------1--3-|

 


 


 (Intro Lead Guitar) (1/2-bend)


 

 
 E|--------15-15~-----------------------------|
 B|-15-18------------18--15-------------------|
 G|--------------------------17b--17-15-16----|(4)
 D|----------------------------------------17~|
 A|-------------------------------------------|
 E|-------------------------------------------|

 


 


 (Intro-Rhythm Guitar)


 

 
 E|-------------------------|
 B|-------------------------|
 G|--------------------5----|
 D|-3--5---------------5--5-|(4)
 A|-3--5---------------3--5-|
 E|-1--3------------------3-|

 


 


 (Intro Lead Guitar)


 [(1/2-b)] [(1/2-b)] [(1/2-b)]  

 
 E|-----------------|--------------|
 B|-17b--17-15-17b--|-17-15-17-17b-|
 G|-17b--17-15-17b--|-17-15-17-17b-|(5)
 D|-----------------|--------------|
 A|-----------------|--------------|
 E|-----------------|--------------|

 


 (Intro-Rhythm Guitar)


 

 
 E|-----------------|-----------------|
 B|-----------------|-----------------|
 G|-----------------|-----------------|(5)
 D|-----------------|-5-5-7-7-5-5-7-5-|
 A|-----------------|-3-3-3-3-3-3-3-3-|
 E|-----------------|-----------------|

 


 


 (Intro Lead Guitar)


 [(1/2-b)] [(1/2-b)]  

 
 E|---------------|-15~---------------------|
 B|-17b--17-15-17-|-15~------------------15~|
 G|-17b--17-15-17-|-----15b--------------16~|(6)
 D|---------------|------------17~~---------|
 A|---------------|-------------------------|
 E|---------------|-------------------------|

 


 (Intro-Rhythm Guitar)


 

 
 E|----------------|---------|-----------------|
 B|----------------|---------|-----------------|
 G|----------------|---------|-----------------|(6)
 D|-----5--7--7--5-|-5--7--5-|-----------------|
 A|-----3--3--3--3-|-3--3--3-|-5-5-7-7-5-5-7-5-|
 E|----------------|---------|-3-3-3-3-3-3-3-3-|

 


 


 (Intro Lead Guitar)


 

 
 E|-----/13-13-----|-13--13----13---13-13-|
 B|-------------15-|--------15------------|
 G|----------------|----------------------|(7)
 D|----------------|----------------------|
 A|----------------|----------------------|
 E|----------------|----------------------|

 


 


 (Intro-Rhythm Guitar)


 

 
 E|---------------|-----------------|
 B|---------------|-----------------|
 G|---------------|-----------------|
 D|---------------|-7-7-9-9-7-7-9-7-|(7)
 A|-5-7-7-5-5-7-5-|-5-5-5-5-5-5-5-5-|
 E|-3-3-3-3-3-3-3-|-----------------|

 


 


 (Intro Lead Guitar)


 [(1/2-b)]  

 
 E|-13-13-13----13-15-------|---15-------|
 B|-------------------------|-------12\--|
 G|---------------------15b-|---12--12\--|(8)
 D|-------------------------|------------|
 A|-------------------------|------------|
 E|-------------------------|------------|

 


 


 (Intro Rhythm Guitar)


 

 
 E|--------------------|-------------------|
 B|--------------------|-------------------|
 G|--------------------|-------------------|
 D|-----7-9-7-7-7-9--7-|-------------------|(8)
 A|-----5-5-5-5-5-5--5-|---5-5-7-7-5-5-7-3-|
 E|--------------------|---3-3-3-3-3-3-3-3-|

 


 


 (Verse one)


 My brain is cloudy and my eyes are sore


 

 
 E|---------|--------|---------|-------|
 B|---------|--------|---------|-------|
 G|---------|--------|---------|-------|
 D|---------|--------|---------|-------|
 A|-5-5-7-5-|--5-7-7-|-5-5-7-5-|-5-7-7-|
 E|-3-3-3-3-|--3-3-3-|-3-3-3-3-|-3-3-3-|

 


 


 I told myself I wouldn't drink no more


 

 
 E|---------|--------|---------|-------|
 B|---------|--------|---------|-------|
 G|---------|--------|---------|-------|
 D|---------|--------|---------|-------|
 A|-5-5-7-5-|--5-7-7-|-5-5-7-5-|-5-7-7-|
 E|-3-3-3-3-|--3-3-3-|-3-3-3-3-|-3-3-3-|

 


 A bad hangover something i can't stand


 

 
 E|---------|--------|---------|-------|
 B|---------|--------|---------|-------|
 G|---------|--------|---------|-------|
 D|---------|--------|---------|-------|
 A|-5-5-7-5-|--5-7-7-|-5-5-7-5-|-5-7-7-|
 E|-3-3-3-3-|--3-3-3-|-3-3-3-3-|-3-3-3-|

 


 


 But here i am with a jug in my hand


 

 
 E|---------|--------|---------|-------------------|
 B|---------|--------|---------|-0-0-1-0--0-1-1----|
 G|---------|--------|---------|-0-0-0-0--0-0-0----|
 D|---------|--------|---------|-0-0-2-0--0-2-2----|
 A|-5-5-7-5-|--5-7-7-|-5-5-7-5-|-----------------5-|
 E|-3-3-3-3-|--3-3-3-|-3-3-3-3-|-3-3-3-3--3-3-3--3-|

 


 (Chorus) Rhythm


 Whoo-Whoo Trouble Trouble


 

 
 E|-------------------------|----------|
 B|-------------------------|----------|
 G|-------------------------|----------|
 D|-----------------5-5-7-7-|-5--5-7-5-|
 A|-----------------3-3-3-3-|-3--3-3-3-|
 E|-------------------------|----------|

 


 


 Lead (Fill 1) 1/2bend


 

 
 E|-------------------10~~--8--8--|
 B|----------------------------8--|
 G|----8--9---8--9b---------------|
 D|-------------------------------|
 A|-------------------------------|
 E|-------------------------------|

 


 


 (Rhythm) Worries on my mind


 

 
 E|-------------------------|----------|
 B|-------------------------|----------|
 G|-------------------------|----------|
 D|-----------------5-7-7-5-|-5--7---5-|
 A|-----------------3-3-3-3-|-3--3---3-|
 E|-------------------------|----------|

 


 Lead (Fill 2)


 

 
 E|------15-15-15-15-15-15-|--15----------------------|
 B|-\15--------------------|-----18p15-15--15---------|
 G|------------------------|-------------------15-----|(Lead with
 D|------------------------|-----------------------17-|Rhythm below)
 A|------------------------|--------------------------|
 E|------------------------|--------------------------|

 


 (Rhythm)


 

 
 E|------------------|-----------------|
 B|------------------|-----------------|
 G|------------------|-----------------|
 D|------------------|-----------------|(Rhythm with Lead above)
 A|-5-5-7-7--5-5-7-5-|--5-7-7--5-5-7-5-|
 E|-3-3-3-3--3-3-3-3-|--3-3-3--3-3-3-3-|

 


 


 Goin down to the cellar Get some of that mellow wine


 

 
 E|------------------|-----------------|
 B|------------------|-----------------|
 G|------------------|-----------------|
 D|-7-7-9-9--7-7-9-7-|--7-9-7--7-7-9-7-|(Rhythym withLead below)
 A|-5-5-5-5--5-5-5-5-|--5-5-5--5-5-5-5-|
 E|------------------|-----------------|
 E|------------------|-------------------15---18-|
 B|----------15------|--18~--18-18-15-18---------|
 G|-14--14-----------|---------------------------|(Lead with
 D|---15-------------|---------------------------|Rhythm above)
 A|------------------|---------------------------|
 E|------------------|---------------------------|
 E|------------------|-----------------|
 B|------------------|-----------------|
 G|------------------|-----------------|
 D|------------------|-----------------|(Rhythn with
 A|-5-5-7-7--5-5-7-5-|--5-7-7--5-5-7-5-|Lead below)
 E|-3-3-3-3--3-3-3-3-|--3-3-3--3-3-3-3-|

 


 (Full)


 

 
 E|----------15-15---15--15------------|
 B|--------------------------18-15-15\-|
 G|--17b-------------------------------|(Lead with
 D|------------------------------------|Rhythm above)
 A|------------------------------------|
 E|------------------------------------|

 


 (Verse 2 same as verse 1)


 I seem to ruin everything i touch


 People say its cause I drink too much


 I try to kick it But it ain't no use


 Cause I'm a slave to that mellow juice


 


 (Chorus)


 Whoo-Whoo Trouble Trouble


 Worries on my mind


 Goin down to the cellar


 Get some of that mellow wine


 


 (Intro)


 


 

 
 (Then Guitar Solo 1) (Rhythm during solo-(G-C-G-C-D-G-C-G-D-C)

 


 


 [(1/2)] [(1/2)]  

 
 E|---------------------------|
 B|-17b--17--15--17b----17-15-|
 G|-17b--17--15--17b----17-15-|
 D|---------------------------|
 A|---------------------------|
 E|---------------------------|

 


 (All Full Bends to 19)


 

 
 E|------------------|-------------------------------------------|
 B|-------15------15-|------15-----15-----------15-----15-----15-|
 G|-17b------17b-----|-17b-----17b---17b----17b----17b----17b----|
 D|------------------|-------------------------------------------|
 A|------------------|-------------------------------------------|
 E|------------------|-------------------------------------------|
 E|-------------------|-----------------------|
 B|-----15-----15-----|------15-----15-----15-|
 G|-17b----17b----17b-|--17b----17b----17b----|
 D|-------------------|-----------------------|
 A|-------------------|-----------------------|
 E|-------------------|-----------------------|

 


 (Full bends to 20))


 

 
 E|---------------------------------|----------------------------------|
 B|---------------------------------|----------------------------------|
 G|-17b-17p15----15-----------15-17-|-17b--17b-17b-17b-17b-17b-17b-17b-|
 D|-----------17-----17-15-17-------|----------------------------------|
 A|---------------------------------|----------------------------------|
 E|---------------------------------|----------------------------------|

 


 (Full bends to 21)


 

 
 E|----------------------------------|
 B|----------------------------------|
 G|-17b-17b-17b-17b-17b-17b-17b-17b\-|
 D|----------------------------------|
 A|----------------------------------|
 E|----------------------------------|
 E|------------------|-----------------------|
 B|--------15-----18-|-----18-18----18-18----|
 G|--15----15-----15-|-----15-15----15-15-17-|
 D|-----17-----17----|--17-------17----------|
 A|------------------|-----------------------|
 E|------------------|-----------------------|

 


 (Full bends to 19)


 

 
 E|-------------------------------|---------------------------------|
 B|-----15----15----15----15---15-|----15----15----15-----15-----15-|
 G|-17b---17b---17b---17b---17b---|-17b--17b----17b---17b----17b----|
 D|-------------------------------|---------------------------------|
 A|-------------------------------|---------------------------------|
 E|-------------------------------|---------------------------------|
 E|---------------------------|--------------------------|
 B|-----15-15-15-----15-15-15-|-----15-15-15-----1515-15-|
 G|-17b----------17b----------|-17b----------17b---------|
 D|---------------------------|--------------------------|
 A|---------------------------|--------------------------|
 E|---------------------------|--------------------------|
 E|---------------------------------------|---------------------------|
 B|-----15-15-15-----15-15-15----15-15-18-|-10b--19-15--10--19-15--10-|
 G|-17b---------17b---------17b-----------|---------------------------|
 D|---------------------------------------|---------------------------|
 A|---------------------------------------|---------------------------|
 E|---------------------------------------|---------------------------|
 E|-----------------15-15-16-|----------------|-------------------|
 B|--10---19-19-19-----------|-15----------15-|----15-15----15-15-|
 G|--------------------------|-15----------15-|----15-15----15-15-|
 D|--------------------------|----17p15h17----|-17-------17-------|
 A|--------------------------|----------------|-------------------|
 E|--------------------------|----------------|-------------------|

 


 


 (Verse 3)


 


 (Chorus and outro Guitar solo)


 


 

 
 E|---------------------|---------------------|
 B|-15b-17-17-17--------|-15b-17-17-17--------|
 G|-------------15b-----|--------------15b----|
 D|-----------------17--|------------------17-|
 A|---------------------|---------------------|
 E|---------------------|---------------------|
 E|----------15-----15-----15-|-15------------|
 B|-------15-15-----15-----15-|-15--18-15-----|
 G|-15-17-------17b----17b----|-----------15b-|
 D|---------------------------|---------------|
 A|---------------------------|---------------|
 E|---------------------------|---------------|
 E|-8--10-10-10-10-10----10-10-|--10-10-----------------|
 B|-------------------13-------|--------13-12-10--12-10-|
 G|----------------------------|------------------------|
 D|----------------------------|------------------------|
 A|----------------------------|------------------------|
 E|----------------------------|------------------------|

 


 (Bend to 12) (Fade out)


 

 
 E|-----------------------|--------------------------|
 B|-10b----10b----10b-----|---3--3b-------3--3b------|
 G|-----12-----12-----12\-|----------5----------5----|
 D|-----------------------|------------5-----------5-|
 A|-----------------------|--------------------------|
 E|-----------------------|--------------------------|
 E|----------3-3-3-3-------|---------------|
 B|-------3----3-3---6-3-3-|--3-5-6-----6b-|
 G|--5--5------------------|---------------|
 D|------------------------|---------------|
 A|------------------------|---------------|
 E|------------------------|---------------|
 E|-------3-3-3---------|
 B|--6b---6-6-6-6-3---6-|
 G|---------------------|
 D|---------------------|
 A|---------------------|
 E|---------------------|

 


 


 (Alternate verse Riff)


 


 

 
 E|------------------------------------------------|
 B|-0-0-1-0-----0-1-1------------------------------|
 G|-0-0-0-0-----0-0-0-----------------15b----15----|
 D|-0-0-2-0-----0-2-2---------------------------17-|
 A|------------------------------------------------|
 E|-3-3-3-3-----3-3-3------------------------------|


Important: The song above is NOT stored on the Chordie server. The original song is hosted at www.guitaretab.com. Chordie works as a search engine and provides on-the-fly formatting. Chordie does not index songs against artists'/composers' will. To remove this song please click here.

This song is displayed as text-only. Transposing and tuning is only available for chordpro-songs.
Rate #3 of 3 versions

Login - add to songbook

SHARE PAGE  




You need to log in to post comments