Guitar Tabs, Chords and Lyrics
Server problems seems to be fixed. Chordie has been experiencing problems with songs disappearing. These issues now seems to be fixed, but still verifying the fix. If you find anything strange, please email admin@chordie.com.


Third Time Lucky  Foghat

Third Time Lucky (v2)
by Foghat
From the album Boogie Motel
Tabbed by Von_Bing 08/05/07
=================================================
(Intro)
 
 E|-------------------------------------------|
 B|-------------------------------------------|
 G|2-0-------/4/5/7/9~---2-0--------/4/5/7----|
 D|----20--------------------20------------5~-|
 A|0-------3-------------0-------3------------|
 E|-------------------------------------------|

[C]  
 
 E|-------------------------------------------0--|
 B|----------0-1/3/5~-----------0-1/3---------1--|
 G|2-0----------------2-0---------------------0--|
 D|----20-----------------20------------------2--|
 A|0-------3----------0-------3--------3------3--|
 E|----------------------------------------------|

(Acoustic 2nd guitar played with ending part of intro)
 
 E|-3-00-3-0------0-----|
 B|-0-11-0-1------1-----|
 G|-0-00-0-0------0-----|
 D|-0-22-0-2------2-----|
 A|-2-00-2-3------3-----|
 E|-3----3--------------|

(Verse)
[F] [G] [G] [C]  
 
 E|-1----1--------3---3-----------0----3---3-----0--|
 B|-1-------------3--------------------3---------1--|
 G|-2-------------4--------------------4---------0--|
 D|-3--------3----5--------5-----------5------5--2--|
 A|----------------------------------------------3--|
 E|-------------------------------------------------|

It's all behind me there's good luck up ahead
[F] [G] [C] [F] [G]  
 
 E|-1-----1------------3--3-------0---------1---1-------3----3-|
 B|-1------------------3----------1---------1-----------3------|
 G|-2------------------4----------0---------2-----------4------|
 D|-3-----------3------5-----5----2---------3------3----5------|
 A|-------------------------------3----------------------------|
 E|------------------------------------------------------------|

Can't break what's left of my heart Once bitten, twice shy
[G]  
 
 E|------3-------0----------------0--------------------------3--|
 B|------------------3---1-------------3--1--------1--1------0--|
 G|--------------------------2----------------2-----------2--0--|
 D|--5-------5-----------------------------------------------0--|
 A|----------------------------------------------------------2--|
 E|----------------------------------------------------------3--|

This time it feels so good, I'd hate to see it fall apart
 
 E|--------------------------|
 B|--------------------------|
 G|--------------------------|
 D|--------------------------|
 A|--------2~--232----22-----|
 E|---0--3---------3------0--|
 E|-1-------1-----3---3------0--3---3-----0-----0----|
 B|-1-------------3-------------3------------3- 1----|
 G|-2-------------4-------------4---------------0----|
 D|-3----------3--5-------5-----5------5--------2----|
 A|---------------------------------------------3----|
 E|--------------------------------------------------|

First love I had was seventeen, I was younger
[F] [G] [C]  
 
 E|----1---1------1---3---3----0---0--|
 B|----1--------------3------------1--|
 G|----2------3-------4------------0--|
 D|----3--------------5------------2--|
 A|--------------------------------3--|
 E|-----------------------------------|

Love to us was some kind of game
[F] [G] [G]  
 
 E|--1----1------3---3-------0---3--3--------3--0----------|
 B|--1-----------3---------------3------------------3---1--|
 G|--2-----------4---------------4-------------------------|
 D|--3--------3--5--------5------5------5------------------|
 A|--------------------------------------------------------|
 E|--------------------------------------------------------|

In all my letters said I never would forget her now
[C] [C] [G]  
 
 E|---0------------0--0------3---------------------------------|
 B|------3-----1---1--1------0---------------------------------|
 G|----------------0--0---2--0---------------------------------|
 D|----------------2--2------0------------2--3--2----2---------|
 A|----------------0--0------2---------23---------3----3--2--0-|
 E|--------------------------3------03-------------------------|

I can't recall her name
(Chorus)
[C] [C] [F] [C]  
 
 E|----0----0--------0-----0----1---0---0--0--------3----3--|
 B|----1---------3P1-1--3-----1-1---1----------1------------|
 G|----0-------------0----------2---0-----------------------|
 D|----2-------------2----------3---2-----------------------|
 A|----3-------------3--------------3-----------------------|
 E|---------------------------------------------------------|

The first time I was a fool I never knew that love
[G] [G] [G/C] [G] [F] [G]  
 [C]
 E|---0---3-3--33---3---0--0---0----0--1-0--3----0------------0-|
 B|-------0-0--22---0---1--------------1----0---------3---3~--1-|
 G|-------0-0--00---0---0--------------2----0-----------------0-|
 D|-------0-0--00---0---2--------------3----0-----------------2-|
 A|-------2-2--22---2---3-------------------2-----------------3-|
 E|-------3-3--33---3-----------------------3-------------------|

Could be so cruel It happened to me again third time lucky

Important: The song above is NOT stored on the Chordie server. The original song is hosted at www.guitaretab.com. Chordie works as a search engine and provides on-the-fly formatting. Chordie does not index songs against artists'/composers' will. To remove this song please click here.

Text color:
Chord color:
Chord grids: 
Font size:    
Page size: 

C F G G/C
Rate #1 of 5 versions

Login - add to songbook

SHARE PAGE  




You need to log in to post comments