Guitar Tabs, Chords and Lyrics
Major upgrade!! After one year development the new version of Chordie is now online! Please give feedback.


All My Life   Foo Fighters

 
 e----------------------------------------
 b----------------------------------------
 g----------------------------------------
 D--5-5---5-5-5---5-5-5---5-5-5---5-5-5--- this bit is repeated quite a lot just listen
 A--5-5---5-5-5---5-5-5---5-5-5---5-5-5--- to the song and you'll get it.
 E--3-3---3-3-3---3-3-3---3-3-3---3-3-3---

 


 


 **********************************


 * Main Riff *


 **********************************


 


 This has no palm mute.


 


 

 
 e-----------------------------------------------------------------
 b-----------------------------------------------------------------
 g-----------------------------------------------------------------
 D--5-5-5-5-5--5-5-5-5-5--8-8-8---5-5-5-5-5--5-5-5-5-5--11-11-11--- Again listen to the
 A--5-5-5-5-5--5-5-5-5-5--8-8-8---5-5-5-5-5--5-5-5-5-5--11-11-11--- song to get the
 E--3-3-0-3-3--3-3-0-3-3--6-6-6---3-3-0-3-3--3-3-0-3-3--9 -9 -9 --- correct amount of 

 


 times.


 


 **********************************


 * Verses *


 **********************************


 


 This has no palm mute.


 


 

 
 e-------------------------------------------------------------
 b------------------------------------------------------------- You'll have to listen to
 g----3-----3---3-----3-----------3-----3---3-----3------------ it to get the correct
 D-----------------------8-8-8-----------------------11-11-11-- amount of times.
 A-----------------------8-8-8-----------------------11-11-11--
 E--3---333---3---333----6-6-6--3---333---3---333----9 -9 -9 -- 

 


 | ||| | ||| | ||| | |||


 These bass notes have to be played really fast.


 


 **********************************


 * Chorus *


 **********************************


 


 I dont know if i got the right amount times you play each but its easy enough to work when you listen to the song.


 


 

 
 e--x-x-x-x-x-x-x-x-x-x--x-x-x-x-x-x-x-x-x-x--0-0-0-0-0--1-1-1-1-1--6-6-6-6-6
 b--4-4-4-4-4-4-4-4-4-4--3-3-3-3-3-3-3-3-3-3--1-1-1-1-1--1-1-1-1-1--6-6-6-6-6
 g--0-0-0-0-0-0-0-0-0-0--0-0-0-0-0-0-0-0-0-0--0-0-0-0-0--2-2-2-2-2--7-7-7-7-7
 D--5-5-5-5-5-5-5-5-5-5--5-5-5-5-5-5-5-5-5-5--2-2-2-2-2--3-3-3-3-3--8-8-8-8-8
 A--6-6-6-6-6-6-6-6-6-6--5-5-5-5-5-5-5-5-5-5--3-3-3-3-3--3-3-3-3-3--8-8-8-8-8
 E--x-x-x-x-x-x-x-x-x-x--x-x-x-x-x-x-x-x-x-x--0-0-0-0-0--1-1-1-1-1--6-6-6-6-6

 


 


 *********************************


 * Bridge *


 *********************************


 


 This is the bit were Dave Grohl keeps saying "done,done on to the next one" near the end of the song. I just call it the bridge.


 


 

 
 e--------------------------------
 b-------------------------------- You keep repeating this. I dont know how many times
 g-------------------------------- though. Make sure you dont let the chords ring too
 D--5- -5- --- much because you dont want them to totally fade.
 A--5-let it ring-5-let it ring---
 E--3- -5- ---

 


 


 After you have repeated that quite a lot it then goes on to this. This is when Dave really shouts "DONE, DONE ON THE NEXT ONE".


 


 

 
 e-----------------------------------
 b-----------------------------------
 g----------------------------------- Hit these chords really hard.
 D--5-5--5-5-5--5-5-5--5-5-5--5-5-5--
 A--5-5--5-5-5--5-5-5--5-5-5--5-5-5--
 E--3-3--3-3-3--3-3-3--3-3-3--3-3-3--

 


 


 After that it goes on to the chorus and the intro bit. The ending is only two chords which are hit quite hard.


 


 

 
 e-------
 b-------
 g-------


Important: The song above is NOT stored on the Chordie server. The original song is hosted at www.guitaretab.com. Chordie works as a search engine and provides on-the-fly formatting. Chordie does not index songs against artists'/composers' will. To remove this song please click here.

This song is displayed as text-only. Transposing and tuning is only available for chordpro-songs.
Rate #15 of 20 versions

Jango Player

Login - add to songbook

SHARE PAGE  




You need to log in to post comments