Guitar Tabs, Chords and Lyrics
Server problems seems to be fixed. Chordie has been experiencing problems with songs disappearing. These issues now seems to be fixed, but still verifying the fix. If you find anything strange, please email admin@chordie.com.


Running Away  Fuel

Song: Running Away
Album: Natural Selection
Tabbed by Timothy Maxwell (email: timmax9@hotmail.com)
Dropped-D Tuning
CHORDS:
G5: 555XXX F5: 333XXX
Eb5: 111XXX Bb5: 888XXX
G: 559XXX Eb: 1110XX
Fsus2: 3330XX D5: 000(2)XX
INTRO: (0:24)
G1: dist.
G2[G5]: d[/]is[/]t.[/] w/r[//]otary[/] s[/]pe[/]aker [/]& [/]de[//]lay
 
 |----------------------------------|
 |----------------------------------|
 |----------------------------------|
 |-----7b-(7)-8-8---7b-(7)---5-7p5--|
 |----------------------------------|
 |----------------------------------|

[G5] [/] [/] [/] [//] [/] [/] [/] [/] [/] [//]  
 
 |----------------------------------|
 |----------------------------------|
 |----------------------------------|
 |-----7b-(7)-8-8---7b-(7)---5-7p5--|
 |----------------------------------|
 |----------------------------------|

VERSE 1: (0:33)
Everyday you're on my mind
[G5] [F5]  
 
 |----------------------------------------|
 |----------------------------------------|
 |----------------------------------------|
 |------7h8---------------------5h7p7-7---|
 |----------------------------------------|
 |----------------------------------------| (repeat throughout verse)

[G5]Pain is feeling passing [F5]time,
but if [G5]she found out about you she would [F5]die
And if I [G5]had to live without you, so would [F5]I
PRE-CHORUS: (1:10)
So I[Eb5] thirst for the [F5]water
[Eb5]I find myself [F5]wanting now
CHORUS: (1:19)
So I'm running away to you
[G] [Eb5] [Bb5] [F5]  
 
 |-------------------------------------------|
 |--------------11----11-----11-----10h11p10-|
 |--------10/12----12-----10----10-----------|
 |-------------------------------------------|
 |-------------------------------------------|
 |-------------------------------------------|

I can not escape you
[G5] [Eb5] [Bb5] [F5]  
 
 |-------------------------------------------|
 |--------------11----11-----11-----10h11p10-|
 |--------10/12----12-----10----10-----------|
 |-------------------------------------------|
 |-------------------------------------------|
 |-------------------------------------------|

To feel your touch, the faith you prove
[G5] [Eb5] [Bb5] [F5]  
 
 |-------------------------------------------|
 |--------------11----11-----11-----10h11p10-|
 |--------10/12----12-----10----10-----------|
 |-------------------------------------------|
 |-------------------------------------------|
 |-------------------------------------------|

I'm running away to you
[G] [Eb5] [Bb5] [F5]  
 
 |-------------------------------------------|
 |--------------11----11-----11-----10h11p10-|
 |--------10/12----12-----10----10-----------|
 |-------------------------------------------|
 |-------------------------------------------|
 |-------------------------------------------|

VERSE 2: (1:37)
Hearts are never made of stone
[G5] [F5]  
 
 |------10------10-----10-------10-------------------------------------|
 |-10h11---10h11---10h11---10h11---10h11-13-10h11-13-10h11-13-10h11-13-|
 |---------------------------------------------------------------------|
 |---------------------------------------------------------------------|
 |---------------------------------------------------------------------|
 |---------------------------------------------------------------------|

(repeat through out verse)
[G5]Pain will cut you to the [F5]bone
But I [G5]know that holding to is all so [F5]wrong
So [G5]tonight's the last we'll ever be [F5]alone
PRE-CHORUS: (2:15)
So I thirst for the water
[Eb5] [F5]  
 
 |-------------------------|
 |---10b-------------10----|
 |-------------------------|
 |-------------------------|
 |-------------------------|
 |-------------------------|

I find myself wanting now
[Eb5] [F5]  
 
 |-------------------------|
 |---10b-------------10----|
 |-------------------------|
 |-------------------------|
 |-------------------------|
 |-------------------------|

(CHORUS) (2:24)
BRIDGE: (2:42)
[Eb] Turn aro[Fsus2]und, fill my eyes with [Eb5]you
All senses to [D5]commit, till everything's alright
Guitar Solo: (3:01)
[G5] [Eb5] [Bb5] [F5] [G5] [Eb5] [D5/Eb5] [D5]  
 
 |------------------------|------------------------|
 |------------------------|------------------------|
 |------------------------|-7h8-8-7-7\5---7-7-8/10-|
 |-7b-(7)-5-7-5-5-7-8-7-5-|------------------------|
 |------------------------|------------------------|
 |------------------------|------------------------|

[G5] [Eb5] [Bb5] [F5] [G5] [Eb5] [F5]  
 
 |--------------------------|-17h18-18-20-17-17----|
 |-/ll-llp10-11/13/15/16-18-|------------------18~-|
 |--------------------------|----------------------|
 |--------------------------|----------------------|
 |--------------------------|----------------------|
 |--------------------------|----------------------|

PRE-CHORUS: (3:19)
So I thirst for the water
[Eb5] [F5]  
 
 |-------------------------|
 |---10b-------------10----|
 |-------------------------|
 |-------------------------|
 |-------------------------|
 |-------------------------|

I find myself wanting now
[Eb5] [F5]  
 
 |-------------------------|
 |---10b-------------10----|
 |-------------------------|
 |-------------------------|
 |-------------------------|
 |-------------------------|

BREAK: (3:28)
So I'm running away
[G5]P.M. . .[Eb5] . . . .[Bb5] . . . .[F5] . . . .
 
 |---------------------------------|
 |---------------------------------|
 |---------------------------------|
 |-5-5-5---1-1-1---8-8-8---3-3-0-3-|
 |-5-5-5---1-1-1---8-8-8---3-3-0-3-|
 |-5-5-5---1-1-1---8-8-8---3-3-0-3-|

yeah, yeah, yeah
[G5]P.M. . .[Eb5] . . .[F5]
 
 |---------------------------------|
 |---------------------------------|
 |---------------------------------|
 |-5-5-5---1-1-1---3---3---3-------|
 |-5-5-5---1-1-1---3---3---3-------|
 |-5-5-5---1-1-1---3---3---3-------|

(CHORUS 2X) (3:38)
OUTRO: (4:14)
[G5] [Eb5] [Bb5] [F5] [G5] [Eb5] [D5/Eb5] [D5] 
(w/gtr. 2 playing lead; fade out)

Important: The song above is NOT stored on the Chordie server. The original song is hosted at www.guitaretab.com. Chordie works as a search engine and provides on-the-fly formatting. Chordie does not index songs against artists'/composers' will. To remove this song please click here.

Text color:
Chord color:
Chord grids: 
Font size:    
Page size: 

Bb5 D5 Eb Eb5 F5 Fsus2 G G5
Rate #1 of 4 versions

Jango Player

Login - add to songbook

SHARE PAGE  



You need to log in to post comments