Guitar Tabs, Chords and Lyrics
Server problems seems to be fixed. Chordie has been experiencing problems with songs disappearing. These issues now seems to be fixed, but still verifying the fix. If you find anything strange, please email admin@chordie.com.


Bittersweet  Fuel

Performed by Fuel (live)
Written by Fuel
Tabbed by Bill Robinson and Lynn MacKinnon
This Song is the unreleased version of Bittersweet(acoutic) which can be played with one or two guitars. If your playing with just one guitar follow gtr1 tab but if your lucky enough to find to hardcore Fuel fans to play with, it sounds SWEET
Chords
Cmaj7 Amaj7 E Bm7* A Em G7 C D A#/Bb
 
 e-|--0-----0-----0-----2-----0-----0-----1-----0-----2-----0
 B-|--0-----2-----0-----0-----2-----0-----0-----1-----3-----3
 G-|--0-----1-----1-----2-----2-----0-----0-----0-----2-----3
 D-|--2-----2-----2-----0-----2-----2-----0-----2-----0-----3
 A-|--3-----x-----2-----2-----0-----2-----2-----3-----x-----0
 E-|--x-----x-----0-----0-----x-----0-----3-----x-----x-----x

Intro
gtr2
[Cmaj7] [Amaj7] [E] [Cmaj7] 
gtr1
 
 e-|-7--7--7--7--8--7--10--10--10--10--10--8--8--7--7--7--7--7--8--7--5--3--3--5-
 B-|-----------------------------------------------------------------------------
 G-|-----------------------------------------------------------------------------
 D-|-----------------------------------------------------------------------------
 A-|-----------------------------------------------------------------------------
 E-|-----------------------------------------------------------------------------

Bm7* A
 
 e-|-3--3--3--2--2--3--2--0--------0------------------
 B-|-------------------------3--3-----3--2--2--2--2--2
 G-|--------------------------------------------------
 D-|--------------------------------------------------
 A-|--------------------------------------------------
 E-|--------------------------------------------------

gtr1 - main riff
[Em] [G7] [C] [D] 
 
 e-|--0----0----1---1---0---0---0---0---0---2--2--2--
 B-|--0----0----0---0---1---1---1---1---1---3--3--3--
 G-|--0----0----0---0---0---0---0---0---0---2--2--2--
 D-|--2----2----0---0---2---2---2---2---2---0--0--0--
 A-|--2----2----2---2---3---3---3---3---3---x--x--x--
 E-|--0----0----3---3---x---x---x---x---x---x--x--x--

gtr2 - brigde (plays with main riff)
 
 e-|-------------------------------------------------
 B-|-------------------------------------------------
 G-|-------------------------------------------------
 D-|--------------------7---7---7---7---7---8--8--7-- 


Important: The song above is NOT stored on the Chordie server. The original song is hosted at www.guitaretab.com. Chordie works as a search engine and provides on-the-fly formatting. Chordie does not index songs against artists'/composers' will. To remove this song please click here.

Text color:
Chord color:
Chord grids: 
Font size:    
Page size: 

Amaj7 C Cmaj7 D E Em G7
Rate #1 of 4 versions

Jango Player

Login - add to songbook

SHARE PAGE  



You need to log in to post comments