Guitar Tabs, Chords and Lyrics
Server problems seems to be fixed. Chordie has been experiencing problems with songs disappearing. These issues now seems to be fixed, but still verifying the fix. If you find anything strange, please email admin@chordie.com.


Falls on Me  Fuel

Intro/Verse:
 
 [---------0-----------------0--------|
 [-----1-----1---1-------1-----1---1--|
 [---0---0-----0-------0---0-----0----|
 [-3-----------------2----------------|
 [------------------------------------|
 [------------------------------------|

End Of Intro (Don't play at end of each verse):
[d] [d] [u] [dudud]  
 
 [--2-2--3-33322----------------------|
 [--3-3--3-33333----------------------|
 [--2-2--2-22222----------------------|
 [------------------------------------|
 [------------------------------------|
 [------------------------------------|

(d=down stroke, u=upstroke)
Chorus:
[C]And all of your [G]ways
All you [Am]dream
Falls on [F]me, it falls on me
[C]And your beautiful [G]sky
The light you [Am]bring
Falls on [F]me, it falls on me
(Verse again)
Chorus:
[C]And all of your [G]ways
All you [Am]dream
Falls on [F]me, it falls on me
[C]And your beautiful [G]sky
The light you [Am]bring
Falls on [F]me, it falls on me
Bridge:
[G]Am I that [Am]strong
[G]To carry [Am]on
[G]Have I changed your [Am]life
[G]Have I changed your [F]world E7 * just before the switch to C with
E * one hard stroke
Could you save me Ahhhhhh
Chorus:
[C]And all of your [G]ways
All you [Am]dream
Falls on [F]me, it falls on me
[C]And your beautiful [G]sky
The light you [Am]bring
Falls on [F]me, it falls on me
[C]And all of your [G]ways
All you [Am]dream
Falls on [F]me, it falls on me
[C]And your beautiful [G]sky
The light you [Am]bring
Falls on [F]me, it falls on me
Solo:
 
 [------------------------------------------------------|
 [------------------------------------------------------|
 [--(9)-(9)-9v-10p9---------9v-10p9-------9v-10p9-------|
 [------------------12v-10v---------12-10---------12bl--|
 [------------------------------------------------------|
 [------------------------------------------------------|

Outro:
 
 [---------0-----------------0--------|
 [-----1-----1---1-------1-----1---1--|
 [---0---0-----0-------0---0-----0----|
 [-3-----------------2----------------|
 [------------------------------------|
 [------------------------------------|

End Of Outro:
[d]  
 
 [--2---------------------------------|
 [--3---------------------------------|
 [--2---------------------------------|
 [------------------------------------|
 [------------------------------------|
 [------------------------------------|

I been playin for 10 weeks now and im learnin fast!
This is my first tab so far its mostly revision off of others, but i hope you like it!
Email at ds0222@gmail.com for questions.

Important: The song above is NOT stored on the Chordie server. The original song is hosted at www.guitaretab.com. Chordie works as a search engine and provides on-the-fly formatting. Chordie does not index songs against artists'/composers' will. To remove this song please click here.

Text color:
Chord color:
Chord grids: 
Font size:    
Page size: 

Am C F G
Rate #1 of 15 versions

Jango Player

Login - add to songbook

SHARE PAGE  




You need to log in to post comments