Guitar Tabs, Chords and Lyrics
Major upgrade!! After one year development the new version of Chordie is now online! Please give feedback.


Hacksore   Gorerotted

 
 -|-----------------------------------------|
 -|-----------------------------------------|
 -|-----------------------------------------|
 -|-------5\4-------------------------------|
 -|-4\3---3\2---2-2-5h8p5-6h9p6-5h8p5-6h9p6-|
 -|-2\1-0-----0-0-0-------------------------|

 


 . . . .


 


 [Riff 2 (x4)] 


 

 
 -|-------------------------------------------------|
 -|-------------------------------------------------|
 -|-------------------------------------------------|
 -|-------------------------------------------------|
 -|-------------2h5p2-3h6p3-------------5h8p5-6h9p6-|
 -|-1h4p1-2h5p2-------------3h6p3-4h7p4-------------|

 


 


 [Riff 3 (x4)] 


 

 
 -|-------------------------|
 -|-------------------------|
 -|-------------------------|
 -|-4"-3"-------------------|
 -|-------3"-2"-4--3--4--3--|
 -|-------------2--1--2--1--|

 


 . . . .


 


 [Riff 4 (x4)] 


 

 
 -|-------------------------------------------------------|
 -|-------------------------------------------------------|
 -|-------------------------------------------------------|
 -|-3/6\3-3/6\3-3/6\3-4/7\4-4/7\4-4/7\4-4/7\4============-|
 -|-1/4\1-1/4\1-1/4\1-2/5\2-2/5\2-2/5\2-2/5\2============-|
 -|-------------------------------------------------------|

 


 


 [Outro (x2)] 


 

 
 -|-------------------------|-------------------------|
 -|-------------------------|-------------------------|
 -|-------------------------|--..bass...--------------|
 -|-4"-3"-------------------|-------------------------|
 -|-------3"-2"-4--3--4--3--|-------------4--3--4--3--|
 -|-------------2--1--2--1--|-------------2--1--2--1--|

 


 . . . . . . . .


 


 [Riff 5 (x2)] 


 

 
 -|--------[x2]-|-------------------------------------------------|-
 -|-------------|-------------------------------------------------|-
 -|-------------|-------------------------------------------------|-
 -|-------------|-4"-3"-4"-3"-4"-3"-4"-3"-2"-1"-2"-1"-------------|-
 -|-------------|-------------------------------------2"-1"-------|-
 -|-1"-2"-1"-2"-|-------------------------------------------2"-1"-|-
 -------------------------------------------------|
 -------------------------------------------------|
 -------------------------------------------------|
 -4"-3"-4"-3"-4"-3"-4"-3"-2"-1"-2"-1"-4--3--------|
 -------------------------------------2--1--4--3--|
 -------------------------------------------2--1--|

 


 . . . .


 


 [Riff 6 (x4)] 


 

 
 -|----------------------------|
 -|----------------------------|
 -|----------------------------|
 -|------------------5\4-------|
 -|------------4\3---3\2---2-2-|
 -|-2tr3......-2\1-0-----0-0-0-|

 


 . . . .


 


 [Riff 7 (x4)] 


 

 
 -|------------------------------------------|
 -|------------------------------------------|
 -|------------------------------------------|
 -|--------------------------------5\4-------|
 -|-5h8p5-6h9p6-5h8p5-6h9p6--4\3---3\2---2-2-|
 -|--------------------------2\1-0-----0-0-0-|


Important: The song above is NOT stored on the Chordie server. The original song is hosted at www.guitaretab.com. Chordie works as a search engine and provides on-the-fly formatting. Chordie does not index songs against artists'/composers' will. To remove this song please click here.

This song is displayed as text-only. Transposing and tuning is only available for chordpro-songs.
Rate #1 of 2 versions

Jango Player

Login - add to songbook

SHARE PAGE  




You need to log in to post comments