Guitar Tabs, Chords and Lyrics
Major upgrade!! After one year development the new version of Chordie is now online! Please give feedback.


Beholder of Justice   Hatebreed

 
 |----------------------------------------------------------|
 |----------------------------------------------------------|
 |----------------------------------------------------------|
 |----------------------------------------------------------|
 |-------1------0------------------1-------0----000-000-000-|
 |00000001-000000-000000000000000001-0000000-00-000-000-000-|

 


 |....... ..... ................. ...... .. ... ... ...


 |


 |Gtr. 2


 

 
 |----------------------------------------------------------|
 |----------------------------------------------------------|
 |----------------------------------------------------------|
 |----------------------------------------------------------|
 |----------------00000000000000000-------------000-000-000-|
 |----------------00000000000000000-------------000-000-000-|

 


 ................. ... ... ...


 


 Both Gtrs.


 

 
 |----------------------------------------------------------|
 |----------------------------------------------------------|
 |----------------------------------------------------------|
 |----------------------------------------------------------|X4
 |00000001-000000-000000000000000001-0000000-00-000-000-000-|
 |00000001-000000-000000000000000001-0000000-00-000-000-000-|

 


 ....... ..... ................. ...... .. ... ... ...


 


 

 
 |------------------------------------------------|
 |------------------------------------------------|
 |5-5------------------5-5------------------------|
 |3-3-3-4-3-1-0--------3-3-3-4-3-1-0--000-000-000-|
 |----3-4-3-1-0------------3-4-3-1-0--000-000-000-|

 


 ... ... ...


 


 

 
 |-----------------------------------|
 |-----------------------------------|
 |-----------------------------------|
 |5-5------------------5-5-----------|
 |3-3-3-4-3-1-0--------3-3-3-4-3-1-0-|
 |----3-4-3-1-0------------3-4-3-1-0-|
 |----------------------------------------------------------|
 |----------------------------------------------------------|
 |----------------------------------------------------------|
 |----------------------------------------------------------|X4
 |00000001-000000-000000000000000001-0000000-00-000-000-000-|
 |00000001-000000-000000000000000001-0000000-00-000-000-000-|

 


 ....... ..... ................. ...... .. ... ... ...


 


 

 
 |------------------------------------------------|
 |------------------------------------------------|
 |------------------------------------------------|
 |5-5------------------5-5------------------------|
 |3-3-3-4-3-1-0--------3-3-3-4-3-1-0--000-000-000-|
 |----3-4-3-1-0------------3-4-3-1-0--000-000-000-|

 


 ... ... ...


 


 

 
 |-----------------------------------|
 |-----------------------------------|
 |-----------------------------------|
 |5-5------------------5-5-----------|
 |3-3-3-4-3-1-0--------3-3-3-4-3-1-0-|
 |----3-4-3-1-0------------3-4-3-1-0-|
 |----------------------|
 |----------------------|
 |----------------------|
 |5-5-------------------|X3
 |3-3-3-4-3-1-0-0000000-|
 |----3-4-3-1-0-0000000-|

 


 .......


 


 

 
 |--------------|
 |--------------|
 |--------------|
 |5-5-----------|
 |3-3-3-4-3-1-0-|
 |----3-4-3-1-0-|
 |----------------------------------------------|
 |----------------------------------------------|
 |----------------------------------------------|\
 |----------------------------------------------| \
 |0000---1--0-0-0---1--0-0-0---1--0-00000-00-00-| \
 |0000---1--0-0-0---1--0-0-0---1--0-00000-00-00-| \

 


 .... . . . . . . . . . . ..... .. .. X3


 [/] 


 [/]  

 
 |-----------------------------------------------|/
 |-----------------------------------------------|
 |-----------------------------------------------|
 |-----------------------------------------------|
 |0000---1--0-0-0---1--0-0-0---1--0-07-010-07-06-|
 |0000---1--0-0-0---1--0-0-0---1--0-07-010-07-06-|

 


 .... . . . . . . . . . . . . . .


 


 

 
 |------------------------------------------------|
 |------------------------------------------------|
 |------------------------------------------------|
 |5-5------------------5-5------------------------|
 |3-3-3-4-3-1-0--------3-3-3-4-3-1-0--000-000-000-|
 |----3-4-3-1-0------------3-4-3-1-0--000-000-000-|

 


 ... ... ...


 


 

 
 |-----------------------------------|
 |-----------------------------------|
 |-----------------------------------|
 |5-5------------------5-5-----------|
 |3-3-3-4-3-1-0--------3-3-3-4-3-1-0-|
 |----3-4-3-1-0------------3-4-3-1-0-|


Important: The song above is NOT stored on the Chordie server. The original song is hosted at www.guitaretab.com. Chordie works as a search engine and provides on-the-fly formatting. Chordie does not index songs against artists'/composers' will. To remove this song please click here.

This song is displayed as text-only. Transposing and tuning is only available for chordpro-songs.
Rate #0 of 2 versions

Login - add to songbook

SHARE PAGE  




You need to log in to post comments