Guitar Tabs, Chords and Lyrics
Server problems seems to be fixed. Chordie has been experiencing problems with songs disappearing. These issues now seems to be fixed, but still verifying the fix. If you find anything strange, please email admin@chordie.com.


Don't You Wanna Stay  Jason Aldean

Intro
[G#m] [E] [B] [A#/B]  
 
 e|------------------------------------------|
 B|-------------------7--9-------------------|
 G|-6--8--6--8--6--8--------8------6~--------|
 D|------------------------------------------|
 A|------------------------------------------|
 E|------------------------------------------|

[G#m] [E] [B] [A#/B]  
 
 e|------------------------------------------|
 B|-------------------7--9-------7-----------|
 G|-6--8--6--8--6--8--------8-------6--8--4--|
 D|------------------------------------------|
 A|------------------------------------------|
 E|------------------------------------------|

Verse 1
[G#m]I really hate to [E]let this moment [B]go
[G#m]Touching your skin and your[E] hair falling [B]slow
W[E]hen a goodbye kiss f[Em]eels like this
Chorus
[B]Don't you wanna stay [G#m]here a [F#]little while
Don't you wanna [C#m]hold each other tight
Don'[D#]t you wanna f[E]all asleep with me tonight
[B]Don't you wanna stay [G#m]here a [F#]little while
We can make [C#m]forever feel this wa[D#]y
[E]Don't you wanna stay
 
 e|------------------------------------------|
 B|-------------------7--9-------------------|
 G|-6--8--6--8--6--8--------6h8~/------------|
 D|------------------------------------------| [X2]
 A|------------------------------------------|
 E|------------------------------------------|

Verse 2
(Same as Verse 1)
Let's take it slow I don't wanna move too fast
Don't wanna just make love, I wanna make love last
When you?re off this cab, it?s a sad goodbye
Chorus
[B]Don't you wanna stay [G#m]here a [F#]little while
Don't you wanna [C#m]hold each other tight
Don'[D#]t you wanna f[E]all asleep with me tonight
[B]Don't you wanna stay [G#m]here a [F#]little while
We can make [C#m]forever feel this wa[D#]y
[E]Don't you wanna stay [A]
Bridge: (There are some lead parts in the background i cant hear,
but these are the chords)
Oh [C#m]yeah
[B]Oh it feels so per[A]fect baby
Oh it feels so perfect,[C#m] baby
[B]Don't you wanna stay [G#m]here a [F#]little while[C#m]
Chorus
[B]Don't you wanna stay [G#m]here a [F#]little while
Don't you wanna [C#m]hold each other tight
Don'[D#]t you wanna f[E]all asleep with me tonight
[B]Don't you wanna stay [G#m]here a [F#]little while
We can make [C#m]forever feel this wa[D#]y
[E]Don't you wanna stay
Instrumental Part
[F#] [E]  
 
 e|--------------------------------------------|
 B|--------------------------------------------|
 G|--------------------------------------------|
 D|---6-6--6-6----2-2--2-2---------------------|
 A|---6-6--6-6----2-2--2-2---------------------|
 E|---4-4--4-4----0-0--0-0---------------------|
 e|------------------------------------------|
 B|------------------------------------------|
 G|---4-6-8-3-4-6----------------------------|
 D|---x-x-x-x-x-x----------------------------|
 A|---2-4-6-1-2-4----------------------------|
 E|------------------------------------------|

[G#m]Don't you wa[E]nna stay[B] [A#/B]
[G#m]Yeah,yeah,ye[E]ah[B] [A#/B]
[G#m]Yeah,yeah,ye[E]ah[B] [A#/B]
Ending:
 
 e|--------------------------------------------|
 B|--------------------------------------------|
 G|--------------------------------------------|
 D|---6-6--6-6----2-2--2-2---------------------|
 A|---6-6--6-6----2-2--2-2---------------------|
 E|---4-4--4-4----0-0--0-0---------------------|
 e|------------------------------------------|
 B|------------------------------------------|
 G|---4-6-8-3-4-6----------------------------|
 D|---x-x-x-x-x-x----------------------------|
 A|---2-4-6-1-2-4----------------------------|
 E|------------------------------------------|

[F#] [F#] [E] [E] [B]  
 
 ----------------------------------------------------------------

h= hammer on
/=slide
x= not played
To all the Hannah's and Montan's ;)

Important: The song above is NOT stored on the Chordie server. The original song is hosted at www.guitaretab.com. Chordie works as a search engine and provides on-the-fly formatting. Chordie does not index songs against artists'/composers' will. To remove this song please click here.

Text color:
Chord color:
Chord grids: 
Font size:    
Page size: 

A A#/B B C#m D# E Em F# G#m
Rate #4 of 10 versions

Login - add to songbook

SHARE PAGE  



You need to log in to post comments