Guitar Tabs, Chords and Lyrics
Server problems seems to be fixed. Chordie has been experiencing problems with songs disappearing. These issues now seems to be fixed, but still verifying the fix. If you find anything strange, please email admin@chordie.com.


Altitudes   Jason Becker

 
 |---------------------------------------------------------------|
 |-----------------14b(15)v----11b(12)-11b(12)rv--(11)-12-11v----|
 |--/11v----11-11------------------------------------------------|
 |---------------------------------------------------------------|
 |---------------------------------------------------------------|
 |---------------------------------------------------------------|
 |--------------------------------------------------------------------------|
 |--11h12p11h14--14b(17)v----14b(17)-14b(17)v--14b(17)v---14b(17)r--14v-----|
 |--------------------------------------------------------------------------|
 |--------------------------------------------------------------------------|
 |--------------------------------------------------------------------------|
 |--------------------------------------------------------------------------|
 |--------------------------------------14h15p14----------------|
 |--------14---------17--15-14h15p14-15----------15-------------|
 |-----15----15----------------------------------------16/------|
 |--16----------16----------------------------------------------|
 |--------------------------------------------------------------|
 |--------------------------------------------------------------|
 |--------------------------------------------------------------------|
 |----------------14b(15)v---11b(12)-(12)(11)-11b(12)(11)(14)(11)v----|
 |--/11v----11-11-----------------------------------------------------|
 |--------------------------------------------------------------------|
 |--------------------------------------------------------------------|
 |--------------------------------------------------------------------|
 |-----------------------------------------14--15-14-----------------|
 |--11h12p11h14--14b(17)--(17)/---17b(19)------------17-15-14--------|
 |-------------------------------------------------------------16----|
 |-------------------------------------------------------------------|
 |-------------------------------------------------------------------|
 |-------------------------------------------------------------------|
 |-----------14-17p14h15----------------------14h15-12h14h15--------------|
 |--------15-------------17-14h15h17-14h15h17----------------12h14h15-----|
 |--15-16-------------------------------------------------------------11--|
 |------------------------------------------------------------------------|
 |------------------------------------------------------------------------|
 |-------------------------------------------|
 |-------------------------------------------|
 |-----------------11h12h14------------------|
 |--12h14-11h12h14----------11---------------|
 |-----------------------------12h14/16v-----|
 |-------------------------------------------|
 |--------------------------------------------------------------|
 |---------------14b(15)v----------------15b(17)(16)-15b(17)----|
 |--11v----11-11------------11-11-/12v--------------------------|
 |--------------------------------------------------------------|
 |--------------------------------------------------------------|
 |--------------------------------------------------------------|
 |----------------------------------------------------|
 |-----------------------17b(19)v(18)-18b(19)v--------|
 |--12-12-12/15v---15-15------------------------------|
 |----------------------------------------------------|
 |----------------------------------------------------|
 |----------------------------------------------------|
 |----------------------------------------------------|
 w/bar-->scoop--->scoop-------------------------------------------------------|scoop
 |--15p14p12-------15p14p12----------14p12h14p12p10---------------------------|
 |-----------15p14----------15p14p12----------------14p12----11h12p11---------|
 |--------------------------------------------------------12----------12/11v--|
 |----------------------------------------------------------------------------|
 |----------------------------------------------------------------------------|
 |----------------------------------------------------------------------------|
 |-----------------14-------------------------------------------------------|
 |--------14b(15)-----(15)v---------------------15b(17)(16)(17)(15)(17)v----|
 |--11-11----------------------11-11/12---12-12-----------------------------|
 |--------------------------------------------------------------------------|
 |--------------------------------------------------------------------------|
 |--------------------------------------------------------------------------|
 |---------------------------------------------------------------------------|
 |-------------------17b(19)(18)(19)-/11-12-14b(15)w/bar-14h15p14p12h14w/bar-|
 |--12-12/15---15-15---------------------------------------------------------|
 |---------------------------------------------------------------------------|
 |---------------------------------------------------------------------------|
 |---------------------------------------------------------------------------|
 |------------------------------------------------------------------------|
 |--14-14-14-14b(18)w/bar--(18)-(14)-14w/bar---14h18p14h18--18b(19)v------|
 |------------------------------------------------------------------------|
 |------------------------------------------------------------------------|
 |------------------------------------------------------------------------|
 |------------------------------------------------------------------------|

 


 


 Switch to clean tone


 


 

 
 |-------------------------------------------------------------------|
 |-------7b(8)-8rp-(7)-----------------------------------------------|
 |--4v-----------------8b(9)w/bar---7p6-7h9w/bar---10b(11)w/bar------|
 |-------------------------------------------------------------------|
 |-------------------------------------------------------------------|
 |-------------------------------------------------------------------|
 |--PB11-----------------------------7------10---14-----17w/bar---|
 |--(12)-(11)-(12)--7h8p7h8p7-----7-----7------7------------------|
 |-----------------------------7--------------------11------------|
 |----------------------------------------------------------------|
 |----------------------------------------------------------------|
 |----------------------------------------------------------------|
 |--17p14-------------------------------------------------------|
 |--------15--14b(15)(14)(15)(14)(15)(14)--12h14p12/8-----------|
 |-----------------------------------------------------12/11v---|
 |--------------------------------------------------------------|
 |--------------------------------------------------------------|
 |--------------------------------------------------------------|
 |--------------------------------------------------------------|
 |--------------------------------14-12h14p12-8-7---------------|
 |------------------------------x-------------------10-9-7v-----|
 |--11b(12)--(12)(11)w/bar----x---------------------------------|
 |--------------------------------------------------------------|
 |--------------------------------------------------------------|
 |----------------------------------------------------------------------|
 |--7b-------------------------------------7h8----PB9-------------------|
 |--7b----7-------7h9v---7/6-7h9--10b(11)---------(11)(9)p7h(9)(11)v----|
 |------9-------x-------------------------------------------------------|
 |------------x---------------------------------------------------------|
 |----------------------------------------------------------------------|
 |---------------------------------------------------------------------------|
 |---------------------------------------------------------------------/15v--|
 |--9-7h9p7-6-7-9-7p6--------------------4-6-6b(7)---6p4-6-7p6--7--11--------|
 |---------------------7---------------4-------------------------------------|
 |------------------------7--5p4-----5---------------------------------------|
 |--------------------------------5------------------------------------------|

 


 


 With distortion


 


 

 
 |-------------------------------------------------------------|
 |-------------------------------------------------------------|
 |-------------------------------------------------------------|
 |----------------------------------7--------------------------|
 |--x/---------7-------------7-9-10---10-9-7-10-9-7------------|
 |--x/--7-9-10---10-9-7-9-10------------------------10-9-7-----|
 |--12p7-------7-12p7-------7-12p7-----------------3-7---|
 |-------8---8--------8---8--------8-------------5-------|
 |---------9------------9------------9/4-------4---------|
 |---------------------------------------5---5-----------|
 |-----------------------------------------7-------------|
 |-------------------------------------------------------|
 |--/12p9---------9-12p9---------9-14p9---------9-12p9---------9---|
 |--------10---10--------10---10--------10---10--------10---10-----|
 |-----------9--------------9--------------9--------------9--------|
 |-----------------------------------------------------------------|
 |-----------------------------------------------------------------|
 |-----------------------------------------------------------------|
 |--14p10----------10-14p10----------10-14p10----------10-14p10----------10--|
 |--------12----12----------12----12----------12----12----------12----12-----|
 |-----------11----------------11----------------11----------------11--------|
 |---------------------------------------------------------------------------|
 |---------------------------------------------------------------------------|
 |---------------------------------------------------------------------------|
 |--19p14-------------------------10-14/19p14-------------------------10-14--|
 |--------15-------------------12-------------15-------------------12--------|
 |-----------16p11----------11-------------------16p11----------11-----------|
 |-----------------12----12----------------------------12----12--------------|
 |--------------------14----------------------------------14-----------------|
 |---------------------------------------------------------------------------|
 |--17p14----------14-17p14----------14-19p14----------14-17p14----------14--|
 |--------15----15----------15----15----------15----15----------15----15-----|
 |-----------14----------------14----------------14----------------14--------|
 |---------------------------------------------------------------------------|
 |---------------------------------------------------------------------------|
 |---------------------------------------------------------------------------|
 |--18p14----------14-18p14----14----14-19p14----------14-18p14----------14--|
 |--------14----14----------14----14----------14----14----------14----14-----|
 |-----------15----------------------------------15----------------15--------|
 |---------------------------------------------------------------------------|
 |---------------------------------------------------------------------------|
 |---------------------------------------------------------------------------|
 |--19p14-------------------------10-14/19p14-------------------------10-14--|
 |--------15-------------------12-------------15-------------------12--------|
 |-----------16p11----------11-------------------16p11----------11-----------|
 |-----------------12----12----------------------------12----12--------------|
 |--------------------14----------------------------------14-----------------|
 |---------------------------------------------------------------------------|
 |--/19p14-------------------------10-14-14p10----15p10----14p10----13p10----|
 |---------15-------------------12-------------12-------12-------12-------12-|
 |------------16p11----------11----------------------------------------------|
 |------------------12----12-------------------------------------------------|
 |---------------------14----------------------------------------------------|
 |---------------------------------------------------------------------------|
 |--15p10----------10-15p10--------------------------10-15p10----------10---|
 |--------12----12----------12--------------------12----------12----12------|
 |-----------12----------------12--------------12----------------12---------|
 |--------------------------------12p9----9h12------------------------------|
 |-------------------------------------10-----------------------------------|
 |--------------------------------------------------------------------------|
 |--17p12----------12-17p12----------12-17p12--------------------------------|
 |--------14----14----------14----14----------14-----------------------------|
 |-----------14----------------14----------------14----------------14--------|
 |--------------------------------------------------14p11----11h14----14p11--|
 |--------------------------------------------------------12-----------------|
 |---------------------------------------------------------------------------|
 |--------------------------------------------------------14-18p14-----------|
 |-----------------------------------14-19p14----------14----------14--------|
 |--------------------------------15----------15----15----------------15-----|
 |-----------16----------------16----------------16----------------------16--|
 |-----13h16----16p13----13h16-----------------------------------------------|
 |--14----------------14-----------------------------------------------------|
 |--------------14-17/21p17-----------------------------------|
 |-----------15-------------19--------------------------------|
 |--------14-------------------19----------------19-----------|
 |-----16-------------------------19p16----16h19----19p16-----|
 |--17----------------------------------17--------------------|
 |------------------------------------------------------------|
 |-----------------------------------------------------|
 |-----------------------------------------------------|
 |-----------------------------------------------------|
 |-----------19----------------14h16p14----14-16-17----|
 |-----16h19----19p16-14-16-17----------17-------------|
 |--17-------------------------------------------------|
 |--------------------------------------------15------|
 |-----------------------15h17p15----15-17-19---------|
 |--14h16p14----14-16-18----------18------------------|
 |-----------17---------------------------------------|
 |----------------------------------------------------|
 |----------------------------------------------------|
 |------------------------------------------------------|
 |------------------------------------------------------|
 |-----------------------------------------16h18p16-----|
 |--------------------16h17p16----16-17-19----------19--|
 |--17p16----16-17-19----------19-----------------------|
 |--------19--------------------------------------------|
 |--------------------------------14h15p14----14-15-17-15h17p15-----|
 |-----------17h19p17----17-19-20----------17-------------------19--|
 |--16-18-19----------19--------------------------------------------|
 |------------------------------------------------------------------|
 |------------------------------------------------------------------|
 |------------------------------------------------------------------|
 |--15-17-19-17h19p17----17-19-21-17-19-21-------|
 |--------------------20-------------------------|
 |-----------------------------------------------|
 |-----------------------------------------------|
 |-----------------------------------------------|
 |-----------------------------------------------|
 |--------------------------------------------------------5------------------|
 |--------------------------------------------3-5-7-5-7-8---8-7-5-8-7-5------|
 |--------------------------2-----------2-4-6---------------------------7-6--|
 |--------2-----------2-4-5---5-4-2-4-5--------------------------------------|
 |--2-4-5---5-4-2-4-5--------------------------------------------------------|
 |---------------------------------------------------------------------------|
 |------7--------------------------------------------|
 |--3h7---3-------3-7p3-------7----------------------|
 |----------6p4h6-------6-4h6---6p4-------4-6p4------|
 |----------------------------------5-4h5-------5----|
 |---------------------------------------------------|
 |---------------------------------------------------|
 |--------------------------------------------------------|
 |------7-------------------------------------------------|
 |--4h6---6p4-------4-6p4---6p4---------------------------|
 |------------5-4h5-------5-----5-4-----5p4---------------|
 |----------------------------------5p4-----5-4-----------|
 |----------------------------------------------7-3-------|
 pm-| pm-------------|
 |-----------------------------------------------------------|
 |-----------------------------------------------------------|
 |--------------------------------2-4-6/7-6-4----------------|
 |--------------------------2-4-5-------------7-5-4----------|
 |--------2-----------2-4-5-------------------------7-5-4----|
 |--2-3-5---5-3-2-3-5----------------------------------------|
 |-------------------------------------------------|
 |-------------------------------------------------|
 |--9p7p6-------------9p7p6------------------------|
 |--------9-7-5-------------9-7-5------------------|
 |--------------9p7p5-------------9-7-5------------|
 |--------------------------------------9-7-5------|
 |-------------------------------------------------------------|
 |-------------------------------------------------------------|
 |---------------------------------------------------7---------|
 |------------------------------7-------------7-9-11---11-9----|
 |---------7-------------7-9-10---10-9-7-9-10------------------|
 |--7-9-10---10-9-7-9-10---------------------------------------|
 |--------------------------------------9---------------9-10-12---|
 |----------------8-------------8-10-12---12-10-8-10-12-----------|
 |---------7-9-11---11-9-7-9-11-----------------------------------|
 |--7-9-11--------------------------------------------------------|
 |----------------------------------------------------------------|
 |----------------------------------------------------------------|
 |---------------------------------------------------------------------------|
 |----------------------------------------------------------8-10-12-8-10-12--|
 |--------------------------------------------7-11-9-7-9-11------------------|
 |------------------------------7-9-11-7-9-11--------------------------------|
 |----------------7-10-9-7-9-10----------------------------------------------|
 |--7-9-10-7-9-10------------------------------------------------------------|
 |--9-12-10-9-10-12/14p10-----------------------------------|
 |------------------------12--------------------------------|
 |---------------------------11-----------------------------|
 |------------------------------12p9------------------------|
 |-----------------------------------10p9------10p9-10v-----|
 |----------------------------------------10p9--------------|
 |------------------------------------------------------|
 |------------------------------------------------------|
 |---------------------------------------4-6-7-/9v------|
 |-------------------------------------4----------------|
 |--9h10p9/7--9b(10)*--9-7---5p4-5---5------------------|
 |---------------------------------7--------------------|
 |------------------------------------------------------------|
 |------------------------------------------------------------|
 |--7*-6*-7/4v---3*--4-(5)*(7)*(6)*(7)*(6)*6p4v----4v---------|
 |------------------------------------------------------------|
 |------------------------------------------------------------|
 |------------------------------------------------------------|
 |-------------------------------------------------------|
 |-----------12-14-15-15p12v---12/10h12h15p12p10p7v------|
 |--11-12-14---------------------------------------------|
 |-------------------------------------------------------|
 |-------------------------------------------------------|
 |-------------------------------------------------------|

 


 


 \1___ \1____


 

 
 |--17b(19)--17-15-14---14b(15)--14-12----12b(14)--10------------|
 |-----------------------------------------------------12v-------|
 |---------------------------------------------------------------|
 |---------------------------------------------------------------|
 |---------------------------------------------------------------|
 |---------------------------------------------------------------|
 |--12p10----------10-12p10----------10-12p10----10----|
 |--------12----12----------12----12----------12-------|
 |-----------11----------------11----------------------|
 |-----------------------------------------------------|
 |-----------------------------------------------------|
 |-----------------------------------------------------|
 |--14p10----------10-14p10----------10-14p10----10----|
 |--------12----12----------12----12----------12-------|
 |-----------11----------------11----------------------|
 |-----------------------------------------------------|
 |-----------------------------------------------------|
 |-----------------------------------------------------|
 |--12p10----------10-12p10----------10-12p10----10----|
 |--------12----12----------12----12----------12-------|
 |-----------11----------------11----------------------|
 |-----------------------------------------------------|
 |-----------------------------------------------------|
 |-----------------------------------------------------|
 |--9h10p9----------9-10p9----------9-10p9----9--------|
 |---------12----12--------12----12--------12----------|
 |------------11--------------11-----------------------|
 |-----------------------------------------------------|
 |-----------------------------------------------------|
 |-----------------------------------------------------|
 |--14p10----------10/19p14----------14-19p14----14----|
 |--------12----12----------15----15----------15-------|
 |-----------11----------------16----------------------|
 |-----------------------------------------------------|
 |-----------------------------------------------------|
 |-----------------------------------------------------|
 |--19p15----------15-22p15----------15-19p15----15----|
 |--------15----15----------15----15----------15-------|
 |-----------16----------------16----------------------|
 |-----------------------------------------------------|
 |-----------------------------------------------------|
 |-----------------------------------------------------|
 |--17p15----------15-17p15----------15-17p15----15----|
 |--------15----15----------15----15----------15-------|
 |-----------14----------------14----------------------|
 |-----------------------------------------------------|
 |-----------------------------------------------------|
 |-----------------------------------------------------|
 |--17p12----------12-17p12----------12-17p12----12----|
 |--------14----14----------14----14----------14-------|
 |-----------14----------------14----------------------|
 |-----------------------------------------------------|
 |-----------------------------------------------------|
 |-----------------------------------------------------|
 |--15p12----------12-15p12----------------------------|
 |--------14----14----------14-------------------------|
 |-----------14----------------14p12----------12h14----|
 |-----------------------------------14p11-------------|
 |-----------------------------------------14----------|
 |-----------------------------------------------------|
 |--10h14p10----------10-14p10----------10-14p10----10-|
 |-----------12----12----------12----12----------12----|
 |--------------11----------------11-------------------|
 |-----------------------------------------------------|
 |-----------------------------------------------------|
 |-----------------------------------------------------|
 |--14p12----------12-14p12----------12-14p12----12----|
 |--------14----14----------14----14----------14-------|
 |-----------11----------------11----------------------|
 |-----------------------------------------------------|
 |-----------------------------------------------------|
 |-----------------------------------------------------|
 |--14p10----------10-14p10----------10-14p10----10----|
 |--------12----12----------12----12----------12-------|
 |-----------11----------------11----------------------|
 |-----------------------------------------------------|
 |-----------------------------------------------------|
 |-----------------------------------------------------|
 |--16p13----------13-19p16----------16-22p19----19----|
 |--------15----15----------18----18----------21-------|
 |-----------16----------------19----------------------|
 |-----------------------------------------------------|
 |-----------------------------------------------------|
 |-----------------------------------------------------|
 |--21p17-------17-17p12----------12-17p12----12-------|
 |--------17-------------14----14----------14----------|
 |-----------18-------------14-------------------------|
 |-----------------------------------------------------|
 |-----------------------------------------------------|
 |-----------------------------------------------------|
 |--15p12-------------12p9------------9p6---6----------|
 |--------14---------------11-------------8------------|
 |-----------15p12------------12p9---------------------|
 |-----------------14--------------11------------------|
 |-----------------------------------------------------|
 |-----------------------------------------------------|
 |--15p12----------------------------------------------------|
 |--------14-----------------------------------------11------|
 |-----------15p12------------------------------9h12---------|
 |-----------------14p11---------------------11--------------|
 |-----------------------13p10---------1oh13-----------------|
 |-----------------------------12p9h12-----------------------|
 |-----------------------------------------------------|
 |--7b(9)v------7p4-(7)*(9)*(7)*(9)*(7)*(11)*7*v-------|
 |-----------------------------------------------------|
 |-----------------------------------------------------|
 |-----------------------------------------------------|
 |-----------------------------------------------------|
 |---------------------------------------------------------------------------|
 |--7*--4*--7*--4*-----------------------------------------------------------|
 |------------------6b(8)-4---6*--4-----6b(8)*(6)*(8)*(6)*(8)*-6p4-----------|
 |--------------------------6--------6-----------------------------6p4-------|
 |---------------------------------------------------------------------6p4v--|
 |---------------------------------------------------------------------------|
 |---------------------------------------------------------|
 |--------------7-9h12p9h12h14/14p12h14----19b(21)---------|
 |----------6-8--------------------------------------------|
 |------6-9------------------------------------------------|
 |--x/-----------------------------------------------------|
 |--x/-----------------------------------------------------|
 pm--------------------------------------------------|
 |------------------------19b(21)-(19)-18h19-----------16-18-19-21b(23)23(24--|
 |--19p16-17b(19)---17p16--------------------19b(21)v-------------------------|
 |----------------------------------------------------------------------------|
 |----------------------------------------------------------------------------|
 |----------------------------------------------------------------------------|
 |----------------------------------------------------------------------------|
 |--(21)/-12b(14)v--12p10p9-------------------------------------------------|
 |--------------------------10----------------------------------------------|
 |-----------------------------11-------------------------------------------|
 |--------------------------------12/11-7/4---------------------------------|
 |------------------------------------------5p4------4-0-2-4-5-4b(5)v-4v----|
 |----------------------------------------------5/2-------------------------|

 


 


 \1___


 

 
 |--------------------------------------------------------------------|
 |--------------------------------------------------------------------|
 |--------------------------------------------4h6b(8)r----------------|
 |--------2h4h5/7p5p4h5p4---4-----------4h5h7-----------7p4/2h4h5-----|
 |--2h4h5-----------------7---7p5p4h5-7-------------------------------|
 |-------------------------------------------------------------------------|
 |-------------------------------------------------------------------------|
 |------------------7-----------7*------------7-----7b(8)*(7)*(10)*(7)*----|
 |--4h6h7p6p4/6h7h9---11p9p7/6------4-4*---4-----4-------------------------|
 |-------------------------------------------------------------------------|
 |-------------------------------------------------------------------------|
 |------------------------9-12p9--------------------9-12----|
 |--7/--12p10--10v-----10--------10--------------10---------|
 |-------------------9--------------9----------9------------|
 |------------------------------------11----11--------------|
 |---------------------------------------12-----------------|
 |----------------------------------------------------------|
 |--/17p12----------------------------12-17p12----------12---|
 |---------14----------------------14----------14----14------|
 |------------14----------------14----------------14---------|
 |---------------14p11----11h14------------------------------|
 |---------------------12------------------------------------|
 |-----------------------------------------------------------|
 |--15p12---------------------------------------------|
 |----------------------------------------------------|
 |---------14--14-12----------------------------------|
 |-------------------14-11----------------------------|
 |-------------------------12-10-9-12-10-9*v----------|
 |----------------------------------------------------|
 pm--------------------------------------|
 |---------------------------------------------------------------|
 |---------------------------------------------------------------|
 |---------------------------------------------9-12-11p9-12------|
 |----------9h11h12p11p9---------------9-11-12--------------11---|
 |--9h10h12--------------12-10-9-10-12---------------------------|
 |---------------------------------------------------------------|
 |-------------------10-14-14p12p10-----------------------------|
 |----------10-13-12----------------14p12p10--------------------|
 |--9h11h12----------------------------------12p11p9------------|
 |---------------------------------------------------12-11-9----|
 |--------------------------------------------------------------|
 |--------------------------------------------------------------|
 |--------------------------------------------------------------|
 |-------------------------10-12-14p12p10----------9-10-12-14b(13)(14)w/bar--|
 |----------------10-12-14----------------14p10h12---------------------------|
 |--------9-11-12------------------------------------------------------------|
 |--11-12--------------------------------------------------------------------|
 |---------------------------------------------------------------------------|
 |---------------------------------------------------------------------------|

 


 


 \1____ \1__ \1___________


 

 
 |--10h14p10--/16p13---------------------13-16p13b(15)(16)(15)----|
 |------------------------------------15--------------------------|
 |---------------------16p13h16p13h16-----------------------------|
 |----------------------------------------------------------------|
 |----------------------------------------------------------------|
 |----------------------------------------------------------------|
 |--/17p12----------------------------12-17p12----------------------------12-|
 |---------14----------------------14----------14----------------------14----|
 |------------14----------------14----------------14----------------14-------|
 |---------------14p11----11h14----------------------14p11----11h14----------|
 |---------------------12----------------------------------12----------------|
 |---------------------------------------------------------------------------|
 |--15p12------------------------9h12/14/12p9------------------12---|
 |--------14------------------11--------------11------------14------|
 |------------15p12-9h12-9-12--------------------12p9/12h15---------|
 |------------------------------------------------------------------|
 |------------------------------------------------------------------|
 |------------------------------------------------------------------|
 |--15p12-14/12p9---------------9-12/15p12-------------9---|
 |----------------11---------11------------14-------11-----|
 |-------------------12p9h12------------------15-12--------|
 |---------------------------------------------------------|
 |---------------------------------------------------------|
 |---------------------------------------------------------|
 |--12/15p12/18p15----------------15-18-21--------|
 |-----------------17----------17-----------------|
 |--------------------18-15-18--------------------|
 |------------------------------------------------|
 |------------------------------------------------|
 |------------------------------------------------|
 |-------------------------------------------------------|
 |-------------------------------------------------------|
 |-------------------------------------------------------|
 |------------------------------8------------------------|
 |---------7-------------7-9-10---10-9-7-10-9-7----------|
 |--7-9-10---10-9-7-9-10------------------------10-9-----|
 |-------------------------------------------------------------------------|
 |-------------------------------------------------------------------------|
 |-------------------------------------------------------------------------|
 |--------------------------------------10---------------------------------|
 |-----------10----------------10-12-13----13-12-10-13-12-10---------x/----|
 |--10-12-13----13-12-10-12-13-------------------------------13-12---x/----|
 |----------------------14-------------------------------------------------|
 |------12-14--14b(15)------(15)b(14)-12v----------------------------------|
 |--/11-------------------------------------11-11--14v----12-12w/bar-------|
 |-------------------------------------------------------------------------|
 |-------------------------------------------------------------------------|
 |-------------------------------------------------------------------------|

 


 


 All w/bar


 Reverse bar and dip notes are hammered


 


 

 
 |----------------------------------------------------------------|
 |------[7]-[8]---[12]--[8]-[7]------[10]-------------------------|
 |--[9]--------------------------[9]---------[9]----[11]v---------|
 |----------------------------------------------------------------|
 |----------------------------------------------------------------|
 |----------------------------------------------------------------|
 |----------------------20--------------------------------------------------|
 |------18-20--20b(21)------(21)(20)--18v-----------------------------------|
 |--/17------------------------------------17--20p17--20---18p17--18w/bar---|
 |--------------------------------------------------------------------------|
 |--------------------------------------------------------------------------|
 |--------------------------------------------------------------------------|

 


 


 All w/bar


 Reverse bar and dip as notes are hammered


 


 

 
 |-------------------------------------------------------------------|
 |--------[13]-[14]--[18]-[14]-[13]--------[16]----------------------|
 |--[15]-----------------------------[15]--------[15]----[17]v-------|
 |-------------------------------------------------------------------|
 |-------------------------------------------------------------------|
 |-------------------------------------------------------------------|

 


 


 \1____


 

 
 |---------------------14-----------------------------------------------------|
 |------12-14-14b(15)------(15)(14)-------------------------------------------|
 |--/11------------------------------14b(16)v--11-12h14---12p11--12b(14)(12---|v
 |----------------------------------------------------------------------------|
 |----------------------------------------------------------------------------|

 


 


 All w/bar


 Reverse bar and dip notes are hammered


 


 

 
 |----------------------------------------------------------------|
 |------[7]-[8]---[12]--[8]-[7]------[10]-------------------------|
 |--[9]--------------------------[9]---------[9]----[11]v---------|
 |----------------------------------------------------------------|
 |----------------------------------------------------------------|
 |----------------------------------------------------------------|
 |--15--14-12---------------------------------------------------------|
 |------------15-14-12------------------------------------------------|
 |---------------------14-12-11---------------------------------------|
 |------------------------------14-12-11-9-12-11-9--------------------|
 |-------------------------------------------------12-10-9------------|
 |---------------------------------------------------------12-10-9----|

 


 


 \1__ \1___ \1________


 

 
 |---------------------------------------------------------------------------|
 |---------------------------------------------------------------------------|
 |---------------------------------------------------------------------------|
 |-----------------------------11-12-14/16-----12---11----10w/bar-&-feedback-|
 |--------------------11-12-14-----------------------------------------------|
 |-----------10-12-14--------------------------------------------------------|
 |--10-12-14-----------------------------------------------------------------|


Important: The song above is NOT stored on the Chordie server. The original song is hosted at www.guitaretab.com. Chordie works as a search engine and provides on-the-fly formatting. Chordie does not index songs against artists'/composers' will. To remove this song please click here.

This song is displayed as text-only. Transposing and tuning is only available for chordpro-songs.
Rate #1 of 2 versions

Jango Player

Login - add to songbook

SHARE PAGE  




You need to log in to post comments