Guitar Tabs, Chords and Lyrics
Server problems seems to be fixed. Chordie has been experiencing problems with songs disappearing. These issues now seems to be fixed, but still verifying the fix. If you find anything strange, please email admin@chordie.com.


Air  Jason Becker

[Dmaj7]x x 0 7 7 9
[A]x 0 7 6 5 0
[D]x x 0 2 3 2
Aopen
x 0 2 2 2 0
[F#m]  
[2] [4] [4] [2] [2] [2]  
[E]0 2 2 1 0 0
[E7]0 2 0 1 3 0
[G#m]  
[4]Gt[6]r [6]I [4](E[4] A[4] D G B E) - 'Organ (treble)'
Gtr II (E A D G B E) - 'Organ (bass)'
Gtr III (E A D G B E) - 'clean guitar'
Gtr IV (E A D G B E) - 'harmonized'
Gtr V (E A D G B E) - 'chords/bass line'
Gtr VI (E A D G B E) - 'little bass lines'
Intro
Andante Q=92
[2/4]Gtr I
E E Q +E E Q +E E Q
 
 |----------|------------|-----------|
 |----------|------------|-----------|
 |----------|-------2----|-(2)-2-0---|
 |----4-5---|-(5)-5------|-----------|
 |----------|------------|-----------|
 |----------|------------|-----------|

|
| Gtr II
| Q. E Q. E Q. E
 
 |----------|------------|-----------|
 |----------|------------|-----------|
 |----------|------------|-----------|
 |----------|------------|-----------|
 |-2------2-|--4-------4-|--5------5-|
 |----------|------------|-----------|

+E E Q +E E Q E Q. Q E E
 
 |---------|---------|----------|------------|
 |---------|---------|----------|------------|
 |-(0)-0---|---------|----------|------------|
 |-------4-|-(4)-4-6-|--8--4----|--5-------5-|
 |---------|---------|----------|------------|
 |---------|---------|----------|------------|

|
| Q. E H +Q. E +E E Q
 
 |---------|---------|----------|------------|
 |---------|---------|----------|------------|
 |---------|---------|----------|------------|
 |---------|---------|----------|------------|
 |--7----7-|--9------|-(9)----9-|-(9)--9-7---|
 |---------|---------|----------|------------|

Q. E Q. E Q. E
 
 |-----------|-----------|-----------|
 |-----------|-----------|-----------|
 |-----------|-----------|-----------|
 |--4------4-|--2------2-|--0------0-|
 |-----------|-----------|-----------|
 |-----------|-----------|-----------|

|
| E E Q +E E Q +E E Q
 
 |-----------|-----------|-----------|
 |-----------|-----------|-----------|
 |-----------|-----------|-----------|
 |-----------|-----------|-----------|
 |-(7)-7-5---|-(5)-5-4---|-(4)-4-2---|
 |-----------|-----------|-----------|

E Q +E Q. E +Q Q H
 
 |-----------|-----------|-----------|-----------|
 |-----------|-----------|-----------|-----------|
 |-----------|-----------|-----------|--0--------|
 |---0-(0)---|--4------4-|-(4)---4---|-----------|
 |-2---------|-----------|-----------|-----------|
 |-----------|-----------|-----------|-----------|

|
| Q E E +E E Q E Q E +E E E E
 
 |-----------|-----------|-----------|-----------|
 |-----------|-----------|-----------|-----------|
 |-----------|-----------|-----------|-----------|
 |-----------|-----------|-----------|-----------|
 |-2----7----|-----5-----|--7------5-|-(5)-7-3-2-|
 |---------9-|-(9)---7---|-----9-----|-----------|

Gtr V[D]
[B] [B] [B] [B]| [+B] |
E Q E +E E E E Q Q [/]H +[/]H
 
 |---------|-------------|--------|-5-|-(5)-|
 |---------|-------------|--------|-7-|-(7)-|
 |-------0-|-(0)---------|--------|-7-|-(7)-|
 |---2-----|------0------|--------|-0-|-(0)-|
 |---------|--------9----|--------|---|-----|
 |-6-------|----------12-|-10---9-|---|-----|

|
| E E Q E E E E Q Q H H
 
 |---------|-------------|--------|---|-----|
 |---------|-------------|--------|---|-----|
 |---------|-------------|--------|---|-----|
 |---------|------0------|--------|---|-----|
 |-----4---|--2-----9----|--------|---|-----|
 |-6-------|----------12-|-10---9-|---|-----|

|
| H H H H H
 
 |---------|-------------|--------|---|-----|
 |---------|-------------|--------|---|-----|
 |---------|-------------|--------|---|-----|
 |---------|-------------|--------|---|-----|
 |---------|-------------|--------|---|-----|
 |---------|-------------|--------|---|-----|

[A]  
[+B] | [+B] | [+B] | [+B] | [B]|
[/] [/] [/] [/] [/]  
[+B] [+B] [+B] [+B] [B]  
 
 |-(5)---|-(5)---|-(5)---|-(5)---|-0----|
 |-(7)---|-(7)---|-(7)---|-(7)---|-5----|
 |-(7)---|-(7)---|-(7)---|-(7)---|-6----|
 |-(0)---|-(0)---|-(0)---|-(0)---|-7----|
 |-------|-------|-------|-------|-0----|
 |-------|-------|-------|-------|------|

|
| H H H H H
 
 |-------|-------|-------|-------|------|
 |-------|-------|-------|-------|------|
 |-------|-------|-------|-------|------|
 |-------|-------|-------|-------|------|
 |-------|-------|-------|-------|------|
 |-------|-------|-------|-------|------|

|
| Gtr VI
| Q Q Q Q Q Q Q Q Q Q
 
 |-------|-------|-------|-------|------|
 |-------|-------|-------|-------|------|
 |-------|-------|-------|--4--7-|-6----|
 |-------|-----4-|--5--7-|-------|------|
 |-----5-|--7----|-------|-------|---7--|
 |-------|-------|-------|-------|------|

[D]  
[+B] | [+B] | [+B] | [B]| [+B] | [+B] |
G[/]tr I[/] [/] [/] [/] [/]
[+B] [+B] [+B] [B] [+B] [+B]  
 
 |-(0)---|-(0)---|-(0)----|-5---|-(5)---|-(5)---|
 |-(5)---|-(5)---|-(5)----|-7---|-(7)---|-(7)---|
 |-(6)---|-(6)---|-(6)----|-7---|-(7)---|-(7)---|
 |-(7)---|-(7)---|-(7)----|-0---|-(0)---|-(0)---|
 |-(0)---|-(0)---|-(0)----|-----|-------|-------|
 |-------|-------|--------|-----|-------|-------|

|
| Gtr III
| Q Q Q Q Q a Q Q Q Q Q Q Q
 
 |-------|-------|--------|-----|-------|-------|
 |-------|-------|--------|-----|-------|-------|
 |-------|-----4-|--6h7S9-|-7---|-------|-----6-|
 |--4--5-|--7----|--------|-----|-----7-|--9----|
 |-------|-------|--------|---9-|-10----|-------|
 |-------|-------|--------|-----|-------|-------|

[A]  
[+B] | [B]| [+B] | [+B] | [+B] |
[/] [/] [/] [/] [/] 
[+B] [B] [+B] [+B] [+B]  
 
 |-(5)---|-0-------|-(0)---|-(0)---|-(0)--------|
 |-(7)---|-5-------|-(5)---|-(5)---|-(5)--------|
 |-(7)---|-6-------|-(6)---|-(6)---|-(6)--------|
 |-(0)---|-7-------|-(7)---|-(7)---|-(7)--------|
 |-------|-0-------|-(0)---|-(0)---|-(0)--------|
 |-------|---------|-------|-------|------------|

|
| Q Q a a Q Q Q Q Q Q Q Q
 
 |-------|---------|-------|-------|------------|
 |-----7-|-5h7-5---|-------|-------|--5--5pb7r==|
 |--7----|---------|-----4-|--6--7-|------------|
 |-------|-------5-|--7----|-------|------------|
 |-------|---------|-------|-------|------------|
 |-------|---------|-------|-------|------------|

[D] [A]  
[B]| [+B] | [+B] | [+B] | [B]| [+B] |
[/] [/] [/] [/] [/] [/] 
[B] [+B] [+B] [+B] [B] [+B]  
 
 |-5---|-(5)---|-(5)---|-(5)---|-0-----|-(0)---|
 |-7---|-(7)---|-(7)---|-(7)---|-5-----|-(5)---|
 |-7---|-(7)---|-(7)---|-(7)---|-6-----|-(6)---|
 |-0---|-(0)---|-(0)---|-(0)---|-7-----|-(7)---|
 |-----|-------|-------|-------|-0-----|-(0)---|
 |-----|-------|-------|-------|-------|-------|

|
| ~
| Q Q Q Q Q Q Q Q a Q Q Q Q
 
 |-----|-------|-------|-------|-------|-------|
 |-----|-------|-------|-------|-------|-------|
 |-7---|-------|-------|--4--7-|-7p6---|-------|
 |-----|-----4-|--5--7-|-------|-------|--4--5-|
 |---5-|--7----|-------|-------|-----7-|-------|
 |-----|-------|-------|-------|-------|-------|

[D]  
[+B] | [+B] | [B]| [+B] | [+B] |
[/] [/] [/] [/] [/] 
[+B] [+B] [B] [+B] [+B]  
 
 |-(0)---|-(0)----|-5-----|-(5)---|-(5)----|
 |-(5)---|-(5)----|-7-----|-(7)---|-(7)----|
 |-(6)---|-(6)----|-7-----|-(7)---|-(7)----|
 |-(7)---|-(7)----|-0-----|-(0)---|-(0)----|
 |-(0)---|-(0)----|-------|-------|--------|
 |-------|--------|-------|-------|--------|

|
| ~
| Q Q Q a Q a Q Q Q Q Q Q
 
 |-------|--------|-------|-------|--------|
 |-------|--------|-------|-------|--------|
 |-----4-|--6h7s9-|-9p7---|-------|-----6--|
 |--7----|--------|-------|-----7-|--9-----|
 |-------|--------|-----9-|-10----|--------|
 |-------|--------|-------|-------|--------|

[A] [D] 
[+B] | [B]| [+B] | [+B] | [+B] | [B]|
[/] [/] [/] [/] [/] [/] 
[+B] [B] [+B] [+B] [+B] [B]  
 
 |-(5)---|-0---|-(0)---|-(0)---|-(0)---|-5-------|
 |-(7)---|-5---|-(5)---|-(5)---|-(5)---|-7-------|
 |-(7)---|-6---|-(6)---|-(6)---|-(6)---|-7-------|
 |-(0)---|-7---|-(7)---|-(7)---|-(7)---|-0-------|
 |-------|-0---|-(0)---|-(0)---|-(0)---|---------|
 |-------|-----|-------|-------|-------|---------|

|
| Q Q Q Q Q Q Q Q Q q E E E E
 
 |-------|-----|-------|-------|-------|---------|
 |-----7-|-5---|-------|-------|--5--7-|---------|
 |--7----|-----|-----4-|--6--7-|-------|-------7-|
 |-------|---5-|--7----|-------|-------|-----7---|
 |-------|-----|-------|-------|-------|-5-9-----|
 |-------|-----|-------|-------|-------|---------|

[A] [F#m]  
[B]| [B]| [+B] | [+B] | [+B] |
[/] [/] [/] [/] [/] 
[B] [B] [+B] [+B] [+B]  
 
 |-0---------|--5---|--(5)------------|--(5)--|--(5)-||
 |-5---------|--2---|--(2)------------|--(2)--|--(2)-||
 |-6---------|--2---|--(2)------------|--(2)--|--(2)-||
 |-7---------|--4---|--(4)------------|--(4)--|--(4)-||
 |-0---------|------|-----------------|-------|------||
 |-----------|--2---|--(2)------------|--(2)--|--(2)-||

|
| ~~~~~~~~~~~ ~~~~~~~~~~~~~~~~~~~~~~
| E E E E H +E. T Q +T +H +H
 
 |------9-12-|-17---|-(17)-16p14-(14)-|-(14)--|-(14)-||
 |---10------|------|-----------------|-------|------||
 |-9---------|------|-----------------|-------|------||
 |-----------|------|-----------------|-------|------||
 |-----------|------|-----------------|-------|------||
 |-----------|------|-----------------|-------|------||

Section B
Q.=112
6/8
Gtr VI
E E E E E E Q. E E E E E E E E E Q. E E E E E E Q.
 
 |-1------1p0---|-0-------------|-----------6-5-|-3---------5-10-|-8-5----------|
 |----3h5-----3-|-----------2-3-|-5-------------|--------6-------|-----7-8------|
 |-2------------|--------2------|----7-6-7------|----------------|--------------|
 |-0------------|---------------|---------------|----------------|------------8-|
 |--------1-----|-0--1-3-0------|-4-------------|--------5-------|-----5-6--8---|
 |--------------|---------------|--------6------|-3--5-6---------|-5------------|

Q. Q. E E E Q. Q. Q. E E E Q. Q E E E E
[E] [E] [E] [E] [E] [E] [E] [E] [E] [E] [E] [E] [E] [E] [E] [E] [E] [E]  
 
 |-6--5----------|-------------5-|-6--5----------|
 |------8-5--6-8-|----5-6--------|------6-5--3---|
 |---------------|-7------6--7---|-------------3-|
 |-5-------------|---------------|-3-------------|
 |--------5------|---------------|--------3------|
 |---------------|-6------5------|---------------|

Q. Q. Q. Q. Q. Q.
E E E Q. E E E E E E
 
 |------5-12---------|-13--10----6------|
 |----6--------------|--------10----8-5-|
 |-------------------|------------------|
 |-7----------7-8-11-|--0--------5------|
 |-5-----------------|------------------|
 |-------------------|------------------|

Q. E E E Q. Q.
E E E E E E Q. Q.
 
 |-5------3------|--------0------|
 |----6-3----5-2-|-3-------------|
 |---------------|--------0------|
 |-3------2------|-3--2-3----3-2-|
 |---------------|---------------|
 |---------------|---------------|

Q. Q. E E E E E E
E E E E E E Q. E E E Q. E E E
 
 |-1--3-5-3--5-6-|-5------6-5---|--------1--3-5--|
 |---------------|------------6-|-5--------------|
 |---------------|------2-3-2---|----------------|
 |-0------2------|-3--5-------3-|-2--0---0-------|
 |---------------|--------------|------4---------|
 |---------------|--------------|----------------|

Q. Q. E E E E E E E E E Q.
E E E Q. +Q. E E E
 
 |-4--5-7-5------|-(5)--------6-5---|
 |---------------|----------------6-|
 |-------------2-|------------------|
 |-2------3--5---|--5--3-2-3--------|
 |---------------|------------------|
 |---------------|------------------|

Q. E E E E E E Q.
[E] [E] [E] [E] [E] [E] [E] [E] [E] [E] [E] [E] [E] [E] [E] [E] [E] [E]  
 
 |---------------|---------------|---------------|
 |-5--3---6--3---|-3------2------|--------2--0-2-|
 |------3------2-|----3-0----2---|-7-------------|
 |--------0------|-------------2-|----6-0--------|
 |-3-------------|-1------0------|--------0------|
 |---------------|---------------|-4-------------|

Q. Q. Q. Q. Q. Q.
Q. E E E Q. E E E Q. E E E
 
 |--------2------|-2------3--2---|---------------|
 |-----------3---|-------------5-|-3-------------|
 |-2-----------3-|---------------|--------6--9-6-|
 |------2--------|--------2------|---------------|
 |-4--5---1------|-1--2-4--------|-2--4-5--------|
 |---------------|---------------|--------6------|

E E E Q. E E E Q. E E E Q.
H.=H
Q. E E E E E E E E E
 
 |---------9-6---|-10--7---12-9-----|
 |-------------7-|-------7----------|
 |-7-------------|--------------11--|
 |---------------|------------------|
 |-------9-9---9-|--9----9--9-------|
 |-7--10---------|------------------|

E E E Q E Q. E Q
E E E S S S S S S E E E E E E E E E E E E
 
 |-------------------|---------------|---------------|
 |-------------------|---------------|---------------|
 |-9-6---------------|-7------4------|-4------3------|
 |-----8-------------|----9------5---|----3------2---|
 |-------9-7-5-------|------9------7-|------2------4-|
 |-6---9-6-----9-7-6-|-7------3------|-1------2------|

Q E E Q Q. Q. Q. Q.
T T T T T T
|-3-|
T T T E E E Q +S +Q. S S S S S S
 
 |--------------------|--------------------------------------------|
 |--------------------|-------------------------------2(14)--------|
 |-------4------------|-------------------4(16)--------------------|
 |-----4---4----------|-------------4(16)-------4(16)-------4(16)--|
 |---5-------5--------|-------5(17)--------------------------------|
 |-7-----------7-(7)--|-(7)----------------------------------------|

Harmony section
Andante Q=92
[4/4] e e e e e e e e
| | | | | | | |
[/]Gt[/]r I[/]II[/] [/] [/] [/] [/]
S S S S S S S S S S S S S S S S
 
 |--------------------------------------|
 |------------------------------------9-|
 |-----------------------------8-9-11---|
 |--------7-9-11-9-7----7-9-11----------|
 |-7-9-11------------11-----------------|
 |--------------------------------------|

|
| Gtr IV
| S S S S S S S S S S S S S S S S
 
 |------------------------------------7-|
 |-----------------------------7-9-10---|
 |--------6-8--9-8-6----6-8--9----------|
 |-6-7--9-------------9-----------------|
 |--------------------------------------|
 |--------------------------------------|

|
| Gtr V
| E E E E E E E E
 
 |-4----4---4----4----4---4----4----4---|
 |-5----5---5----5----5---5----5----5---|
 |-4----4---4----4----4---4----4----4---|
 |--------------------------------------|
 |--------------------------------------|
 |-0----0---0----0----0---0----0----0---|

[E] [E] [E] [E] [E] W[E] [E] [E]
S S S S S S S S S S S S S S S S
 
 |---------------------------------------------|
 |-12p=9-------------------------9-12p9----12--|
 |-------10-------------------10--------10-----|
 |----------12-9---------9-12------------------|
 |---------------11-8-11-----------------------|
 |---------------------------------------------|

|
| S S S S S S S S S S S S S S S S
 
 |-10p=7-------------------------7-10p7----10--|
 |--------9--------------------9---------9-----|
 |----------10-7---------7-10------------------|
 |----------------9-6--9-----------------------|
 |---------------------------------------------|
 |---------------------------------------------|

|
| W
 
 |--4-----4----4----4----4-----4----4----4-----|
 |--3-----3----3----3----3-----3----3----3-----|
 |--4-----4----4----4----4-----4----4----4-----|
 |---------------------------------------------|
 |---------------------------------------------|
 |-(0)----0----0----0----0-----0----0----0-----|

[E] [E] [E] [E] [E] [E] [E] [E]  
 
 |------------------------------------------|
 |-11p9-------------------------------------|
 |------11-9-8------------------------------|
 |-------------11-9-8-9-8h9p8---------------|
 |----------------------------11-9-7--------|
 |-----------------------------------11-9-7-|

| S S S S S S S S S T T T S S S S S S
| |-3-|
|
 
 |--9p7--6----------------------------------|
 |---------9-7------------------------------|
 |--------------9-8-6-8-6h8p6---------------|
 |-----------------------------9-8-6--------|
 |------------------------------------9-7-6-|
 |------------------------------------------|

| S S S S S S S S S T T T S S S S S S
| |-3-|
|
 
 |--4----4---4----4---4--------4---4----4---|
 |--4----4---4----4---4--------4---4----4---|
 |--4----4---4----4---4--------4---4----4---|
 |------------------------------------------|
 |------------------------------------------|
 |--4----4---4----4---7--------7---7----7---|

[E] [E] [E] [E] [E] [E] [E] [E]  
 
 |------------------6-11p=6-----------6-11p=6--|
 |---------------8-----------8-----8-----------|
 |--------8---8-----------------8--------------|
 |----5-8---8----------------------------------|
 |--6------------------------------------------|
 |---------------------------------------------|

| S S S S S S S S S S S S S S S S
|
 
 |-----------------11-15p11----------11-15p11--|
 |--------8---8-11----------11----11-----------|
 |------8---8------------------12--------------|
 |----8----------------------------------------|
 |-10------------------------------------------|
 |---------------------------------------------|

| S S S S S S S S S S S S S S S S
|
 
 |--3---3---3----3-----3-----3-----3-----3-----|
 |--4---4---4----4-----4-----4-----4-----4-----|
 |--3---3---3----3-----3-----3-----3-----3-----|
 |---------------------------------------------|
 |---------------------------------------------|
 |--3---3---3----3-----6-----6-----6-----6-----|

[E] [E] [E] [E] [E] [E] [E] [E]  
 
 |-12p=7-----------------------------7-12p=7----12-|
 |--------9-----------------------9-----------9----|
 |-----------9-----------------9-------------------|
 |--------------9p=6-----6h=9----------------------|
 |--------------------7----------------------------|
 |-------------------------------------------------|

| S S S S S S S S S S S S S S S S
|
 
 |-16p12----------------------------12-16p12----16-|
 |-------12----------------------12----------12----|
 |----------13----------------13-------------------|
 |-------------14----------14----------------------|
 |----------------14-11h14-------------------------|
 |-------------------------------------------------|

| S S S S S S S S S S S S S S S S
|
 
 |--4-----4-----4-----4-----4-----4-----4-----4----|
 |--5-----5-----5-----5-----5-----5-----5-----5----|
 |--4-----4-----4-----4-----4-----4-----4-----4----|
 |-------------------------------------------------|
 |-------------------------------------------------|
 |--0-----0-----0-----0-----4-----4-----4-----4----|

[E] [E] [E] [E] [E] [E] [E] [E]  
 
 |-11p=7-----------------------------7-11p=7----11--|
 |--------9-----------------------9-----------9-----|
 |-----------8-----------------8--------------------|
 |--------------9-----------9-----------------------|
 |----------------11--6h11--------------------------|
 |--------------------------------------------------|

| S S S S S S S S S S S S S S S S
|
 
 |-16p11----------------------------11-16p11----16--|
 |-------12----------------------12----------12-----|
 |----------13----------------13--------------------|
 |-------------13----------13-----------------------|
 |----------------14-11h14--------------------------|
 |--------------------------------------------------|

| S S S S S S S S S S S S S S S S
|
 
 |--4-----4-----4-----4-----4-----4-----4-----4-----|
 |--4-----4-----4-----4-----4-----4-----4-----4-----|
 |--4-----4-----4-----4-----4-----4-----4-----4-----|
 |--------------------------------------------------|
 |--------------------------------------------------|
 |--7-----7-----7-----7-----4-----4-----4-----4-----|

[E] [E] [E] [E] [E] [E] [E] [E]  
 
 |-10p=7-----------------------------7-10p=7----10-|
 |--------9-----------------------9-----------9----|
 |----------10p=7-----------7h10-------------------|
 |-----------------9-----9-------------------------|
 |-------------------11----------------------------|
 |-------------------------------------------------|

| S S S S S S S S S S S S S S S S
|
 
 |-13p10----------------------------10-13p10----13-|
 |-------12----------------------12----------12----|
 |----------13p10----------10h13-------------------|
 |----------------12----12-------------------------|
 |-------------------14----------------------------|
 |-------------------------------------------------|

| S S S S S S S S S S S S S S S S
|
 
 |--4-----4-----4-----4-----4-----4-----4-----4----|
 |--3-----3-----3-----3-----3-----3-----3-----3----|
 |--4-----4-----4-----4-----4-----4-----4-----4----|
 |-------------------------------------------------|
 |--2-----2-----2-----2----------------------------|
 |--------------------------1-----1-----4-----4----|

[E] [E] [E] [E] [E] [E] [E] [E]  
 
 |--9p6--------------------------6--9p6-----9--|
 |-------8---------------------8---------8-----|
 |----------9p6----------6h=9------------------|
 |---------------8-----8-----------------------|
 |-----------------10--------------------------|
 |---------------------------------------------|

| S S S S S S S S S S S S S S S S
|
 
 |-12p9--------------------------9-12p9----12--|
 |------11--------------------11--------11-----|
 |---------12p9----------9h12------------------|
 |--------------11----11-----------------------|
 |-----------------13--------------------------|
 |---------------------------------------------|

| S S S S S S S S S S S S S S S S
|
 
 |--3----3----3-----3----3-----3----3----3-----|
 |--2----2----2-----2----2-----2----2----2-----|
 |--3----3----3-----3----3-----3----3----3-----|
 |---------------------------------------------|
 |--1----1----1-----1--------------------------|
 |-----------------------0-----0----3----3-----|

[E] [E] [E] [E] [E] [E] [E] [E]  
 
 |--7p4---7S11p=7--------------------7--9-11--7-|
 |------4----------9-----------9-11-------------|
 |--------------------8--9-11-------------------|
 |----------------------------------------------|
 |----------------------------------------------|
 |----------------------------------------------|

| S S S S S S S S S S S S S S S S
|
 
 |-11p7---7S16p11-------------------11-12-14-11-|
 |------9---------12-------11-12-14-------------|
 |-------------------11-13----------------------|
 |----------------------------------------------|
 |----------------------------------------------|
 |----------------------------------------------|

| S S S S S S S S S S S S S S S S
|
 
 |--4---4----4-----4-----4-----4-----4-----4----|
 |--4---4----4-----4-----5-----5-----5-----5----|
 |--4---4----4-----4-----4-----4-----4-----4----|
 |----------------------------------------------|
 |-----------------------6-----6-----6-----6----|
 |--4---4----4-----4----------------------------|

[E] [E] [E] [E] [E] [E] [E] [E]  
 
 |-11p=8-----------------------------8-11p=8----11--|
 |-------10----------------------10----------10-----|
 |----------11p=8-----------8h11--------------------|
 |----------------10----10--------------------------|
 |-------------------12-----------------------------|
 |--------------------------------------------------|

| S S S S S S S S S S S S S S S S
|
 
 |-14p11----------------------------11-14p11----14--|
 |-------13----------------------13----------13-----|
 |----------14p11----------11h14--------------------|
 |----------------13----12--------------------------|
 |-------------------15-----------------------------|
 |--------------------------------------------------|

| S S S S S S S S S S S S S S S S
|
 
 |--5-----5-----5-----5-----5-----5-----5-----5-----|
 |--4-----4-----4-----4-----4-----4-----4-----4-----|
 |--5-----5-----5-----5-----5-----5-----5-----5-----|
 |--------------------------------------------------|
 |--3-----3-----3-----------0-----3-----0-----3-----|
 |--------------------2-----------------------------|

[E]S S [E]S S S[E] S S [E]S S [E]S S S[E] S S [E]S S[E]
 
 |-12p=9-----9p4----7-5--4------------------|
 |--------9------5----------7-5--4----------|
 |---------------------------------6-4------|
 |--------------------------------------7-6-|
 |------------------------------------------|
 |------------------------------------------|

|
| S S S S S S S S S S S S S S S S
 
 |-16p12----12p9---11-9---------------------|
 |-------14------9------12-10-9-------------|
 |------------------------------11-9-8------|
 |-------------------------------------11-9-|
 |------------------------------------------|
 |------------------------------------------|

|
| E E E E E E E E
 
 |--4-----4----4----4----4----4----4----4---|
 |--5-----5----5----5----5----5----5----5---|
 |--6-----6----6----6----4----4----4----4---|
 |-----------------------2----2----2----2---|
 |--4-----4----4----4-----------------------|
 |------------------------------------------|
 |-3--| |-3--| |--3--|

S S S S S S S S S S S S S S S S S S S
 
 |---------5--7p5-----9p5-----9--7-5-----------------|
 |-------5---------5-------5----------9--7-----------|
 |----6------------------------------------9-6-------|
 |--7-------------------------------------------9--7-|
 |---------------------------------------------------|
 |---------------------------------------------------|

|
 
 | |-3--| |-3--| |--3--|

| S S S S S S S S S S S S S S S S S S S
 
 |---------9-10p9----12p9----12-10-9-----------------|
 |------10--------10------10---------12-10-9---------|
 |----9--------------------------------------9-------|
 |-11------------------------------------------12-11-|
 |---------------------------------------------------|
 |---------------------------------------------------|

|
| E E E E E E E E
 
 |--5----5----5----5----5-----5----5-----5-----------|
 |--5----5----5----5----5-----5----5-----5-----------|
 |--6----6----6----6----6-----6----6-----6-----------|
 |--7----7----7----7----7-----7----7-----7-----------|
 |----------------------0-----0----0-----0-----------|
 |---------------------------------------------------|
 |-3--| |-3--| |-3--|

S S S S S S S S S S S S S S S S S S S
 
 |-----------------------------------------------|
 |-------9-10p9---12p9---12-10-9-----------------|
 |-----9--------9------9---------11-9------------|
 |-6h9--------------------------------13-11-9----|
 |--------------------------------------------12-|
 |-----------------------------------------------|

|
 
 | |-3--| |-3--| |-3--|

| S S S S S S S S S S S S S S S S S S S
 
 |-------7--9p7---12p7---11--9-7-----------------|
 |-----9--------9------9---------10-9--7---------|
 |---9------------------------------------9-8--6-|
 |-9---------------------------------------------|
 |-----------------------------------------------|
 |-----------------------------------------------|

|
| E E E E E E E E
 
 |-4---4----4---4----4----4-------4-------4------|
 |-5---5----5---5----5----5-------5-------5------|
 |-4---4----4---4----4----4-------4-------4------|
 |-6---6----6---6----6----6-------6-------6------|
 |-----------------------------------------------|
 |-------------------7----7-------7-------7------|
 |--3--| |--3--| |--3--|

S S S S S S S S S S S S S S S S S S S
 
 |-----------------------------------------------------------|
 |----------10-13p10----16p13----16p13-----------------------|
 |-------11----------11-------14-------14--------------------|
 |-10h13----------------------------------16p13--------------|
 |----------------------------------------------15p12--------|
 |----------------------------------------------------14p11--|

|
 
 | |--3--| |--3--| |--3--|

| S S S S S S S S S S S S S S S S S S S
 
 |-----------8-11p=8----14p11----14p11-----------------------|
 |-------10----------10-------13-------13--------------------|
 |--8-11----------------------------------14p11--------------|
 |----------------------------------------------13p10--------|
 |----------------------------------------------------12p=9--|
 |-----------------------------------------------------------|

|
| E E E E E E E E
 
 |--5-----5-----5-----5-----5-----5-----5-----5--------------|
 |--4-----4-----4-----4-----4-----4-----4-----4--------------|
 |--5-----5-----5-----5-----5-----5-----5-----5--------------|
 |--4-----4-----4-----4-----4-----4-----4-----4--------------|
 |--------------------3-----0-----3-----0-----3--------------|
 |-----------------------------------------------------------|
 |--3--| |--3--| |--3--| |--3--| |--3--|

S S S S S S S S S S S S S S S S S S S S S
 
 |----------------------------------------------------------------|
 |-------------------------12-------------------------------------|
 |----------------11-13-14----14-13-11-14-13-11----11-13-11-------|
 |-------11-13-14-------------------------------14----------14-13-|
 |----11----------------------------------------------------------|
 |-12-------------------------------------------------------------|

|
 
 | |--3--| |--3--| |--3--| |--3--| |--3--|

| S S S S S S S S S S S S S S S S S S S S S
 
 |-----------------------9-11--9--------9-------------------------|
 |--------------9-10-12----------12-10----12-10--9-10-12-10--9----|
 |--------9-11-------------------------------------------------11-|
 |----11----------------------------------------------------------|
 |-11-------------------------------------------------------------|
 |----------------------------------------------------------------|

|
| E E E E E E E E
 
 |--4-----4-----4-----4--------4--------4--------4--------4-------|
 |--5-----5-----5-----5--------5--------5--------5--------5-------|
 |--6-----6-----6-----6--------6--------6--------6--------6-------|
 |--------------------6--------4----------------------------------|
 |--4-----4-----4-----------------------7--------6--------4-------|
 |----------------------------------------------------------------|
 |--3--| |--3--| |--3--| |--3--| |--3--| |--3--| |--3--| |--3--|

S S S S S S S S S S S S S S S S S S S S S S S S
 
 |----------------------------------------------------------------------------|
 |-------13-16p13----16p13----------------------------------------------------|
 |-11-14----------14-------14-------------------------------------------------|
 |----------------------------16p13----------13-16p13----16p13----------------|
 |----------------------------------15-12h15----------15-------15p12----------|
 |-------------------------------------------------------------------14p11----|

|
 
 | |--3--| |--3--| |--3--| |--3--| |--3--| |--3--| |--3--| |--3--|

| S S S S S S S S S S S S S S S S S S S S S S S S
 
 |-------11-14p11----14p11----------------------------------------------------|
 |-10-13----------13-------13-------------------------------------------------|
 |----------------------------14p11----------11-14p11----14p11----------------|
 |----------------------------------13-10h13----------13-------13p10----------|
 |-------------------------------------------------------------------12p=9----|
 |----------------------------------------------------------------------------|

|
| E E E E E E E E
 
 |--5-----5-----5-----5-----5-----5-----5-----5-------------------------------|
 |--4-----4-----4-----4-----4-----4-----4-----4-------------------------------|
 |--5-----5-----5-----5-----5-----5-----5-----5-------------------------------|
 |--------------------------------0-----0-----0-------------------------------|
 |--3-----3-----3-----3-----3-------------------------------------------------|
 |----------------------------------------------------------------------------|
 |--3--| |--3--| |--3--| |--3--| |--3--|

S S S S S S S S S S S S S S S S S S S S S
 
 |----------------------------------------------------------------|
 |-------------12----------11----------------------------------11-|
 |----------13----13-11-13----11-13----11----------------11-13----|
 |-------13-------------------------14----13-14-11-13-14----------|
 |-11-14----------------------------------------------------------|
 |----------------------------------------------------------------|

|
 
 | |--3--| |--3--| |--3--| |--3--| |--3--|

| S S S S S S S S S S S S S S S S S S S S S
 
 |-------------11-------------------------------------------------|
 |----------12----12-11-12-14-12-11----11----------------11-12-14-|
 |-------13-------------------------13----11-13----11-13----------|
 |--9-13----------------------------------------14----------------|
 |----------------------------------------------------------------|
 |----------------------------------------------------------------|

|
| E E E E E E E E
 
 |--4-----4-----4-----4--------4--------4--------4--------4-------|
 |--4-----4-----4-----4--------4--------4--------4--------4-------|
 |--4-----4-----4-----4--------4--------4--------4--------4-------|
 |----------------------------------------------------------------|
 |--------------------6--------4--------2-------------------------|
 |--4-----4-----4--------------------------------6--------4-------|
 |--3--| |--3--| |--3--| |--3--| |--3--| |--3--| |--3--| |--3--|

S S S S S S S S S S S S S S S S S S S S S S S S
 
 |--------9-12p=9----12p=9----------------------------------------------------|
 |----11----------11-------11-------------------------------------------------|
 |-12-------------------------12p=9-----------9-12p=9----12p=9----------------|
 |----------------------------------11--8h11----------11-------11p=8----------|
 |-------------------------------------------------------------------10p=7----|
 |----------------------------------------------------------------------------|

|
 
 | |--3--| |--3--| |--3--| |--3--| |--3--| |--3--| |--3--| |--3--|

| S S S S S S S S S S S S S S S S S S S S S S S S
 
 |-------12-15p12----15p12----------------------------------------------------|
 |-11-14----------14-------14-11----------------------------------------------|
 |-------------------------------12----------12-15p12----15p12----------------|
 |----------------------------------14-11h14----------14-------14p11----------|
 |-------------------------------------------------------------------13p10----|
 |----------------------------------------------------------------------------|

|
| E E E E E E E E
 
 |----------------------------------------------------------------------------|
 |--5-----5-----5-----5-----5-----5-----5-----5-------------------------------|
 |--3-----3-----3-----3-----3-----4-----4-----4-------------------------------|
 |--5-----5-----5-----5-----5-------------------------------------------------|
 |----------------------------------------------------------------------------|
 |--3-----3-----3-----3-----3-----0-----0-----0-------------------------------|

Q.. S S S S T T S S E W
 
 |-------------------------------|-----------------|
 |-------------------------------|-----------------|
 |-------------------------------|-----------------|
 |-------------------------------|-9---------------|
 |-6---------6--7-9-6--7h9---6---|-----------------|
 |-------------------------9---7-|-----------------|

|
| Q.. S S S S T T S S E W
 
 |-------------------------------|-----------------|
 |-------------------------------|-----------------|
 |-------------------------------|-9---------------|
 |----------------8--------------|-----------------|
 |-9---------9-11---9-11-9-7-9-6-|-----------------|
 |-------------------------------|-----------------|

|
| E E E E E E E E E E E E E E E E
 
 |-------------------------------|-----------------|
 |-4---4-4-4----4---4------4---4-|-5-5-5-5-5-5-5-5-|
 |-4---4-4-4----4---4------4---4-|-4-4-4-4-4-4-4-4-|
 |-4---4-4-4----4---4------4---4-|-6-6-6-6---------|
 |-2---2-2-2----0---0------0---0-|-----------------|
 |-------------------------------|-4-4-4-4-0-0-0-0-|

Q.. S S S S T T S S E W
 
 |-----------------------------|-----------------|
 |-----------------------------|-----------------|
 |-----------------------------|-----------------|
 |-----------------------------|-7---------------|
 |-4---------4-5-7-4-5-4---4---|-----------------|
 |-----------------------7---5-|-----------------|

|
| Q.. S S S S T T S S E W
 
 |-----------------------------|-----------------|
 |-----------------------------|-----------------|
 |-----------------------------|-7---------------|
 |---------------6-------------|-----------------|
 |-7---------7-9---7-9-7-5-7-4-|-----------------|
 |-----------------------------|-----------------|

|
| E E E E E E E E E E E E E E E E
 
 |-----------------------------|-----------------|
 |-2---2-2-2---2---2-----2---2-|-3-3-3-3-3-3-3-3-|
 |-2---2-2-2---2---2-----2---2-|-2-2-2-2-2-2-2-2-|
 |-2---2-2-2---2---2-----2---2-|-4-4-4-4-4-4-4-4-|
 |-0---0-0-0---0---0-----0---0-|-----------------|
 |-------------4---4-----4---4-|-2-2-2-2---------|
 |-3-| |-3-| |-3-| |-3-| |-3-| |-3-| |-3-| |-3-|

S S S S S S S S S S S S S S S S S S S S S S S S
 
 |-------------------------------------------------|
 |-------------------------------------------------|
 |-------------------------------------------------|
 |-------2-----------2-----------------------------|
 |-2-3-5---5-3-2-3-5---5-3-2-----------2-----------|
 |---------------------------5-3-2-3-5---5-3-2-3-5-|

|
 
 | |-3-| |-3-| |-3-| |-3-| |-3-| |-3-| |-3-| |-3-|

| S S S S S S S S S S S S S S S S S S S S S S S S
 
 |-------------------------------------------------|
 |-------------------------------------------------|
 |-------------------------------------------------|
 |-------5-----------5-----------------------------|
 |-5-7-9---9-7-5-7-9---9-7-5-----------5-----------|
 |---------------------------8-7-5-7-8---8-7-5-7-8-|

|
| E E E E E E E E
 
 |-------------------------------------------------|
 |-0-----0-----0-----0-----0-----0-----0-----0-----|
 |-0-----0-----0-----0-----0-----0-----0-----0-----|
 |-0-----0-----0-----0-----0-----0-----0-----0-----|
 |-------------------------------------------------|
 |-3-----3-----3-----3-----3-----2-----2-----2-----|
 |-3-| |-3-| |-3--| |--3--| |--3--| |--3--| |--3--| |--3--|

S S S S S S S S S S S S S S S S S S S S S S S S
 
 |------------------------7----10p=7-------------13p10-------------|
 |------------------6h=9-----9--------9----------------12p=9-------|
 |-------------4h=7---------------------10p=7----------------10----|
 |---------3h6---------------------------------9----------------12-|
 |-----2h5---------------------------------------------------------|
 |-1h4-------------------------------------------------------------|

|
 
 | |-3-| |-3-| |-3--| |--3--| |--3--| |--3--| |--3--| |--3--|

| S S S S S S S S S S S S S S S S S S S S S S S S
 
 |-----------------------10----13p10-------------16p13-------------|
 |------------------9h12----12-------12----------------15----------|
 |-------------7h10---------------------13p10-------------16p13----|
 |---------6h9--------------------------------12----------------15-|
 |-----5h8---------------------------------------------------------|
 |-4h7-------------------------------------------------------------|

|
| E E E E E E E E
 
 |------------------------------1-----1----------------------------|
 |-------------3----3-----3-----3-----3----------------------------|
 |-1---1---1---1----1-----1-----1-----1----------------------------|
 |-3---3---3---3----3-----3-----3-----3----------------------------|
 |-2---2---2---2----2-----2----------------------------------------|
 |-1---1---1-------------------------------------------------------|
 |--3--| |--3--| |--3--| |--3--| |--3--| |--3--| |--3--| |--3--|

S S S S S S S S S S S S S S S S S S S S S S S S
 
 |-14p=9-----------------------------9-12p=7-----------------------------7-||
 |-------10----------------------10-----------9-----------------------9----||
 |----------11----------------11-----------------9-----------------9-------||
 |-------------11----------11-----------------------9p=6-----6h=9----------||
 |----------------12--9h12--------------------------------7----------------||
 |-------------------------------------------------------------------------||

|
 
 | |--3--| |--3--| |--3--| |--3--| |--3--| |--3--| |--3--| |--3--|

| S S S S S S S S S S S S S S S S S S S S S S S S
 
 |-17p14----------------------------14-16p12----------------------------12-||
 |-------14----------------------14----------12----------------------12----||
 |----------14----------------14----------------13----------------13-------||
 |-------------16----------16----------------------14----------14----------||
 |----------------16----16----------------------------14-11h14-------------||
 |-------------------17----------------------------------------------------||

|
| E E E E E E E E
 
 |--2--------2--------2--------2-------------------------------------------||
 |--2--------2--------2--------2--------5--------5--------5--------5-------||
 |--2--------2--------2--------2--------4--------4--------4--------4-------||
 |--------------------------------------2--------2--------2--------2-------||
 |--------------------------------------2--------2--------2--------2-------||
 |--2--------2--------2--------2-------------------------------------------||

Counterpoint section
[2/4] S S S S S S S S
 
 |-10------------------|
 |-------------7-8-10--|
 |------6--7-9---------|
 |---------------------|
 |---------------------|
 |---------------------|

|
| |-3--|
| S E. E S S S
 
 |-14------------------|
 |---------------------|
 |---------------------|
 |---------------------|
 |-------------7-9--7--|
 |---------------------|

|
| S E. Q
 
 |---------------------|
 |--3------------------|
 |--4------------------|
 |--4------------------|
 |--2------------------|
 |---------------------|

S T T S S S S S T T S S S S S S S S
 
 |------------------------|-------------------------|
 |--7-8p=7---7------------|-------------------------|
 |---------9---7--9-6-7p6-|---6----9----9--7-6------|
 |------------------------|-9----8------------------|
 |------------------------|-----------9-------------|
 |------------------------|-------------------------|

|
 
 | |-3--| |-3--| |-3--| |-3--|

| S S S Q S S S S S S S S S S S S S
 
 |------------------------|-------------------------|
 |------------------------|-------------------------|
 |------------------------|-------------------------|
 |------------------------|-9-----------------------|
 |----7-------------9-----|---9-------------------9-|
 |-10---10-9---7h10-------|-----10-6-10-9-10-7-10---|

|-3--| |-3-|
S S S S S S S S S S
 
 |----------10-9--7------------|
 |--------7---------10-8-7-----|
 |-7----7----------------------|
 |---9-------------------------|
 |-----------------------------|
 |-----------------------------|

|
 
 | |-3--| |-3--| |-3--|

| S S S S S S E S S S
 
 |-----------------------------|
 |-----------------------------|
 |-----------------------------|
 |-9---------------------------|
 |---9---------9-10----9-7-----|
 |-----10-7h10-------------10--|
 |----6----| |----6-----| |-3--| |-3--| |-3-| |-3-|

S S S S S S S S S S S S S S S S S S S S S S S S
 
 |----------------------6-9-|-10p=7-------------------6-9-|
 |--------------------8-----|-------7---------------8-----|
 |-9-7-6-7---6---6-9--------|---------7-6--7---6h9--------|
 |---------9---8------------|----------------8------------|
 |--------------------------|-----------------------------|
 |--------------------------|-----------------------------|

|
 
 | |-3-| |-3-| |-3--| |-3--| |-3-| |-3-|

| E E S S S S S S S S S S S S S S S S S S
 
 |--------------------------|-----------------------------|
 |--------------------------|-----------------------------|
 |--------------------------|-----------------------------|
 |--------------------------|---------9-------------------|
 |-----------------7h10p7---|-------9---9--------7h10p7---|
 |-9-----------6h9--------9-|--7h10-------10-6-9--------9-|
 |-3--| |-3--| |--3--| |-3-|

S S S S S S S S S S S S
 
 |-10p=7--------7-12p=7----14p7---|
 |-------7---7-----------7------7-|
 |---------7----------------------|
 |--------------------------------|
 |--------------------------------|
 |--------------------------------|

|
 
 | |-3--| |-3--| |--3--| |-3-|

| S S S S S S S S S S S S
 
 |--------------------------------|
 |--------------------------------|
 |--------------------------------|
 |---------9----------------7-----|
 |-------9---9----10----------9-9-|
 |--7h10-------10----10-10--------|
 |--3--| |--3--| |-3--| |-3--|

S S S S S S S S S S S S
 
 |-12p=7----10p=7----9p=7--------7-|
 |--------7--------7------7-8-10---|
 |---------------------------------|
 |---------------------------------|
 |---------------------------------|
 |---------------------------------|

|
 
 | |--3--| |--3--|

Important: The song above is NOT stored on the Chordie server. The original song is hosted at www.guitaretab.com. Chordie works as a search engine and provides on-the-fly formatting. Chordie does not index songs against artists'/composers' will. To remove this song please click here.

Text color:
Chord color:
Chord grids: 
Font size:    
Page size: 

A D Dmaj7 E E7 F#m G#m B
Rate #2 of 2 versions

Jango Player

Login - add to songbook

SHARE PAGE  



You need to log in to post comments