Guitar Tabs, Chords and Lyrics
Major upgrade!! After one year development the new version of Chordie is now online! Please give feedback.


Hello in There  John Prine

 
 ----------------------------------------------------------------------------

Hello in There - John Prine
 
 ----------------------------------------------------------------------------

Tabbed by: Dave S.
Email: prime-prine@hotmail.com
Tuning: Standard (CAPO 5th Fret)
[G]We had an [Am]apartment in the [D7]city,
[G]Me and Lo[Am]retta liked living [D7]there.
[Bm]Well its been years since the [C]kids had grown,
A life [G]of their own left [D]us alone.
[G]John and [Am]Linda live in [D7]Omaha,
[G]And Joe is [Am]somewhere on the [D7]road.
[Bm]We lost Davy in the [C]Korean war,
And I still don't [G]know what for don't matter [D]anymore.
Chorus:
[F]Ya know that old trees just grow [G]stronger,
And old [F]rivers grow wilder every [G]day.
Old [Bm]people just grow [C]lonesome
Waiting for [G]someone to say [D]Hello in there, [G]hello.
[G]Me and [Am]Loretta we don't [D7]talk much more,
[G]She sits and [Am]stares through the back door [D7]screen.
[Bm]And all the news just re[C]peats itself
Like some [G]forgotten dream that [D]we've both seen.
[G]Someday [Am]I'll go and call up [D7]Rudy,
[G]We worked to[Am]gether at the fac[D7]tory.
[Bm]But what could I say if [C]asks What's new
Nothing, [G]what's with you? Nothing [D]much to do.
(Repeat Chorus)
[G]So if you're [Am]walking down the [D7]street sometime
[G]And spot some [Am]hollow ancient [D7]eyes,
[Bm]Please don't just pass them [C]by and stare
As if you [G]didn't care, say [D]Hello in there, [G]hello
Chords:
[G] [Am] [D7] [Bm] [C] [D] [F]  
 
 e|---3---|---0---|---2---|---2---|---0---|---2---|---1---|
 B|---0---|---1---|---1---|---3---|---1---|---3---|---1---|
 G|---0---|---2---|---2---|---4---|---0---|---2---|---2---|
 D|---0---|---2---|---0---|---0---|---2---|---0---|---3---|
 A|---2---|---0---|-------|-------|---3---|-------|---3---|
 E|---3---|-------|-------|-------|-------|-------|---1---|


Important: The song above is NOT stored on the Chordie server. The original song is hosted at www.guitaretab.com. Chordie works as a search engine and provides on-the-fly formatting. Chordie does not index songs against artists'/composers' will. To remove this song please click here.

Text color:
Chord color:
Chord grids: 
Font size:    
Page size: 

Am Bm C D D7 F G
Rate #1 of 6 versions

Login - add to songbook

SHARE PAGE  




You need to log in to post comments