Guitar Tabs, Chords and Lyrics
Major upgrade!! After one year development the new version of Chordie is now online! Please give feedback.


Come Over  Kenny Chesney

Tabbed by: Alan Schaaf
E-mail: alanmschaaf@gmail.com
Tuning: Standard
Capo on 1st fret
Strum pattern is close but not exact. Listen to the song and you should
get it with no problem
Intro:
 
 e|-3-----3-----3-----3-----3------|
 B|---1-----1-----1-----1-----1----|
 G|-----2-----2-----2-----2-----2--|
 D|--------------------------------|
 A|--------------------------------|
 E|--------------------------------|

Hold the notes on the high e string and let them ring
 
 e|-3---------1--------0--------------------------------3----------1-------|
 B|-0p1--1-1--1---1-1--1--1---1---1-1?-1---1-1?-1---1---1----1-1---1---1-1-|
 G|-2----2-2--2---2-2--2--2---0p2-2-2?-0p2-2-2?-0p2-2---0----0-0---0---0-0-|
 D|-2----2-2--2---2-2--2--2---3---3-3--3---3-3--3---3---2----2-2---2---2-2-|
 A|-----------------------------------------------------3----3-3---3---3-3-|
 E|------------------------------------------------------------------------|

D U U D U U D U D U U D U U D U D U U D U U
 
 e|-0-------3---3-3--3---3-3--3---3--|
 B|-1---1---3---3-3--3---3-3--3---3--|
 G|-0---0---0---0-0--0---0-0--0---0--|
 D|-2---2---0---0-0--0---0-0--0---0--|
 A|-3---3---0p2-2-2?-0p2-2-2?-0p2-2--|
 E|---------3---3-3--3---3-3--3---3--|

D U D U U D U U D U
Verse:
You can add your own pulls off and hammer ons to the verse chords as you see fit
Im just gonna give you the basic chords for it
[Am]I turn the tv off, to turn it on again
[F]Staring at the blades of the fan as it spins ar[C]ound[G]
[Am]Counting every crack, the clock is wide awake
[F]Talking to myself, anything to make a [C]sound[G]
Chorus is played with the same notes used in the verse. Im getting tired of tabbing this
out and I know you guys can all figure it out ;)
Thanks for checking out my tab and email me with any revisions or suggestions!

Important: The song above is NOT stored on the Chordie server. The original song is hosted at www.guitaretab.com. Chordie works as a search engine and provides on-the-fly formatting. Chordie does not index songs against artists'/composers' will. To remove this song please click here.

Text color:
Chord color:
Chord grids: 
Font size:    
Page size: 

Am C F G
Rate #1 of 9 versions

Jango Player

Login - add to songbook

SHARE PAGE  




You need to log in to post comments