Guitar Tabs, Chords and Lyrics
Major upgrade!! After one year development the new version of Chordie is now online! Please give feedback.


Aceface   King Adora

 
 E [-7---7-7-7-7-7-7-7-7-7-7-7-7-7-5---5-5-5-5-5-5-5-5-5-5-5-5-5-]
 B [-5---5-5-5-5-5-5-5-5-5-5-5-5-5-3---3-3-3-3-3-3-3-3-3-3-3-3-3-]
 G [-5---5-5-5-5-5-5-5-5-5-5-5-5-5-4---4-4-4-4-4-4-4-4-4-4-4-4-4-]
 D [-7---7-7-7-7-7-7-7-7-7-7-7-7-7-5---5-5-5-5-5-5-5-5-5-5-5-5-5-]
 A [-------------------------------------------------------------]
 E [-------------------------------------------------------------]
 E [-3---3-3-3-3-3-0-0-0-3---3-3-3---------------------------------]
 B [-1---1-1-1-1-1-1-1-1-1---1-1-1-3-3-3-3-3-3-3-0---0-0-0-3-3-3-3-]
 G [-2---2-2-2-2-2-2-2-2-2---2-2-2-1-1-1-1-1-1-1-1---1-1-1-1-1-1-1-]
 D [-3---3-3-3-3-3-3-3-3-3---3-3-3-2-2-2-2-2-2-2-2---2-2-2-2-2-2-2-]
 A [-----------------------------2-2-2-2-2-2-2-2-2---2-2-2-2-2-2-2-]
 E [---------------------------------------------------------------]

 


 


 Guitar 2 (w/ distortion)


 


 Am (x02210)


 G (320003)


 F (x33211)


 E7* (020100)


 E (022100)


 


 played pretty much the same as the above tab


 


 


 Chorus


 

 
 ------

 


 


 Guitar 1 (w/distorion)


 


 F5 (133xxx)


 E (022100)


 


 Guitar 2 (w/distorion)


 


 ...plays a C octave over the F and a Ab octave over the E chord


 


 

 
 E [-------------------------]
 B [-------------------------]
 G [---17----------13--------]
 D [------etc...------etc...-]
 A [---15----------11--------]
 E [-------------------------]

 


 


 Solo


 [----]  


 The solo requires another guitar to play correctly but can be played on just 2 if the notes aren't held


 


 Guitar 1


 


 play same intro.verse riff


 


 Guitar 2


 


 

 
 E [----------------------------------------------------------------------------------------------]
 B [-10------12-----13----15b17r15-13-12~-----15b17r15-13-----------15-------15-------15-------15-]
 G [-12b14---14b16--15b17-------------------------------------17b19----17b19----17b19----17b19----]
 D [----------------------------------------------------------------------------------------------]
 A [----------------------------------------------------------------------------------------------]
 E [----------------------------------------------------------------------------------------------]

 


 


 Guitar 3


 

 
 hold bend from 14-16----------->
 E [----------------------------------------------------------------------------------------------]
 B [-8-------10------12----10--------6------8-------10------13----12-----12-12-12-12-12-12--------]
 G [-10b12---12b14---14b16-12b14-----8b10---10b12---12b14---15b17-14b16--16-16-16-16-16-16-etc...-]
 D [----------------------------------------------------------------------------------------------]
 A [----------------------------------------------------------------------------------------------]
 E [----------------------------------------------------------------------------------------------]


Important: The song above is NOT stored on the Chordie server. The original song is hosted at www.guitaretab.com. Chordie works as a search engine and provides on-the-fly formatting. Chordie does not index songs against artists'/composers' will. To remove this song please click here.

This song is displayed as text-only. Transposing and tuning is only available for chordpro-songs.
Rate #0 of 8 versions

Jango Player

Login - add to songbook

SHARE PAGE  



You need to log in to post comments